Oops, an error
Loading. Please wait.

Adiós Amor Tab

47 views 6 this week
no commentswrite comment
1 2 3 4 5
3 more votes to show rating
add to favorites
launch autoscroll
font size
0
reset
how to read this tab
guitar tuner
Autoscroll
slow
fast
+/-
esc
set tempo
stop
Help us to improve Ultimate-Guitar.com Take our survey!
×
Con amor para ti, el Grupo 5 de Monsefu........asi

Intro :
   Dm             Bb                      F           C
e|------------------------------------------------------|
b|-10-----8-10-8--11--8-8-10-11-10-8-10-8------10-8-----|
G|---10-10------10-----------------------10--10----10-9-|
D|------------------------------------------------------| BIS
E|------------------------------------------------------|

   Dm              C                   Dm
e|------------------------------------------------------|
b|-10-10-8-8-------8-----8-8----------------------------|
G|----------10-10-9---------10-10-9-9-7-10--------------|
D|------------------------------------------------------| BIS
E|------------------------------------------------------|


Dm
Quiero que te olvides de mí,
                           F
que te alejes de mí para siempre,
                         C
quiero que te olvides de mí,
                            Dm
ya no luches contra la corriente,


Dm
quiero que te olvides de mí,
                       F
pues tu amor no lo merezco
                      C
aunque te amo con locura,
                     Dm
nos conocimos a destiempo.


                      Bb
Se que no podré olvidarte
                             F
por eso pido que me olvides tú,
                      C
yo nunca dejare de amarte
                            Dm
por eso pido que no me ames tú;

                 Bb
esto no puede dañarte
                      F
ni puede arruinar mi hogar.
                  C
por eso olvídame tú
                         Dm
Porque yo nunca te podré olvidar
                  C
por eso olvídame tú
                         Dm
Porque yo nunca te podré olvidar.


Coro:

Dm      Bb          F
adiós, adiós amor adiós
           C                 Dm
ya no me mires a los ojos por favor
Dm         Bb        F
adiós, adiós amor adiós
           C              Dm
ya no me pidas mas explicación
Dm      Bb          F
adiós, adiós amor adiós
           C                 Dm
deja de llorar, no me causes mas dolor.

   Dm             Bb                      F           C
e|------------------------------------------------------|
b|-10-----8-10-8--11--8-8-10-11-10-8-10-8------10-8-----|
G|---10-10------10-----------------------10--10----10-9-|
D|------------------------------------------------------| BIS
E|------------------------------------------------------|

MI AMOR OLVIDATE DE MI, AUNQUE YO NUNCA PERO NUNCA ME OLVIDARE DE TI

   Dm              C                   Dm
e|------------------------------------------------------|
b|-10-10-8-8-------8-----8-8----------------------------|
G|----------10-10-9---------10-10-9-9-7-10--------------|
D|------------------------------------------------------| BIS
E|------------------------------------------------------|


Dm
Quiero que te olvides de mí,
                           F
que te alejes de mí para siempre,
                         C
quiero que te olvides de mí,
                            Dm
ya no luches contra la corriente,


Dm
quiero que te olvides de mí,
                       F
pues tu amor no lo merezco
                      C
aunque te amo con locura,
                     Dm
nos conocimos a destiempo.


                      Bb
Se que no podré olvidarte
                             F
por eso pido que me olvides tú,
                      C
yo nunca dejare de amarte
                            Dm
por eso pido que no me ames tú;

                 Bb
esto no puede dañarte
                      F
ni puede arruinar mi hogar.
                  C
por eso olvídame tú
                         Dm
Porque yo nunca te podré olvidar
                  C
por eso olvídame tú
                         Dm
Porque yo nunca te podré olvidar.


Coro:

Dm      Bb          F
adiós, adiós amor adiós
           C                 Dm
ya no me mires a los ojos por favor
Dm         Bb        F
adiós, adiós amor adiós
           C              Dm
ya no me pidas mas explicación
Dm      Bb          F
adiós, adiós amor adiós
           C                 Dm
deja de llorar, no me causes mas dolor.

   Dm              C                   Dm
e|------------------------------------------------------|
b|-10-10-8-8-------8-----8-8----------------------------|
G|----------10-10-9---------10-10-9-9-7-10--------------|
D|------------------------------------------------------| BIS
E|------------------------------------------------------|
Suggest correction
Give kudos to tab author, rate the tab!
1 2 3 4 5
comments
print report bad tab
guest
You may want to rate the tab now too:
select rating
Wanna post a correction for this tab? Suggest correction