Oops, an error
Loading. Please wait.

Adiós Amor Bass Tab

38 views 1 this week
no commentswrite comment
1 2 3 4 5
3 more votes to show rating
add to favorites
launch autoscroll
font size
0
reset
guitar tuner
×
Best way to learn
"Adiós Amor"
Autoscroll
slow
fast
+/-
esc
set tempo
stop
Intro
     x2     x2     x2     x2
E|-------|-6----|------|-------|
A|--5-8--|--5-8-|------|-3-----| x2
D|-----7-|------|-3----|--2-5--|
G|-------|------|--2-5-|-------|

E|------|-----|------|-----|------|-----|-----|--------|
A|--5---|-3---|-3----|-5---|-5--5-|-3---|-3---|---8-7--|
D|---7--|--5--|--55--|--7--|--77--|--5--|--5--|--7-----|
G|----7-|---5-|----5-|---7-|------|---5-|---5-|-7------|

Quiero que te olvides
     x3
E|-------|------|-----|-5---|-5-5-|-------|
A|--5-8--|------|-----|--7--|--7--|-5-8---| x2
D|-----7-|-3----|-3-3-|---7-|-----|----7--|
G|-------|--2-5-|--2--|-----|-----|-------|

se que no podre
     x2
E|--6----|-------|--88-|-----------|-----|-------|
A|---5-8-|-------|-8---|-8------7--|--7--|-5-8---|
D|-------|-8-7-5-|-----|--10-8-7-7-|-7-7-|----7--|
G|-------|-------|-----|-----------|-----|-------|

este amor
     x2
E|--6----|-------|--88-|--------|-----|------|
A|---5-8-|-------|-8---|-8---7--|--7--|-5----|
D|-------|-8-7-5-|-----|--567-7-|-7-7-|--7---|
G|-------|-------|-----|--------|-----|---7--|

por eso
E|------|-5---|-5---|------|--------|
A|--5---|--7--|--7--|-5-8--|-5-5-3--|
D|---7--|---7-|---7-|----7-|--------|
G|----7-|-----|-----|------|--------|

Adios adios
    x2    x2     x2
E|--6---|--8--|------|-----|--------|
A|---8--|-8-8-|---7--|-5---|-5-5-3--| x2
D|----8-|-----|-77-7-|--7--|--------|
G|------|-----|------|---7-|--------|

    x2    x2     x2
E|--6---|--8--|------|------|
A|---8--|-8-8-|---7--|-5----|
D|----8-|-----|-77-7-|--7---|
G|------|-----|------|---7--|

fin
E|------|-----|------|-----|------|-----|------|--------------|
A|--5---|-3---|-3----|-5---|-5-5--|-3---|-3-3--|-5-556--------|
D|---7--|--5--|--55--|--7--|------|--5--|------|------44-577--|
G|----7-|---5-|----5-|---7-|--7-7-|---5-|--5-5-|--7-----------|

E|------|------|------|------|-----|----------|---------|
A|--3---|-3----|-5----|-5-5--|-3---|-3/10-----|---------|
D|---5--|--55--|--77--|------|--5--|-----10/5-|-5-5-55--|
G|----5-|----5-|----7-|--7-7-|---5-|----------|---------|

bueno se repite todo antes del fin
atte. miauricio gatolar
Suggest correction
Give kudos to tab author, rate the tab!
1 2 3 4 5
comments
print report bad tab
guest
You may want to rate the tab now too:
select rating
Wanna post a correction for this tab? Suggest correction