Oops, an error
Loading. Please wait.

Me Enamoré De Tí Bass Tab

32 views 1 this week
no commentswrite comment
1 2 3 4 5
3 more votes to show rating
add to favorites
launch autoscroll
font size
0
reset
guitar tuner
Autoscroll
slow
fast
+/-
esc
set tempo
stop
Help us to improve Ultimate-Guitar.com Take our survey!
×
Intro
E|--1-1-|-1---|------|------|-----|-----|-----------|
A|---3--|-----|-5-8--|-5--5-|--5--|--5--|-220-2203--|
D|------|--32-|----7-|------|-5-5-|-5-5-|-----------|
G|------|-----|------|--77--|-----|-----|-----------|

que locura
E|--88-----|----6---|---6------|----|--8--|
A|-8--8--8-|--8--87-|-6--6-8---|-6--|-----|
D|-----10--|-8-8----|--8----56-|--6-|-5---|
G|---------|--------|----------|----|-----|

E|----8-------|----------|--8------|----------------|
A|-8---8----8-|--88---8--|-8-8-4---|-3-1-0-3-0-1-3--|
D|--10--1010--|-8--8-8-8-|------6--|----------------|
G|------------|----------|-------6-|----------------|

Me enamore de ti  x2     x2
E|-----8--8----|------|-6---|-----|---------|
A|--8---8--8-7-|-5-8--|--8--|-3---|-33-5-7--|
D|---10--------|----7-|---8-|--5--|---------|
G|-------------|------|-----|---5-|---------|

Me enamore de ti               x2    x2
E|-----8--8----|------|-----|-6---|------|
A|--8---8--8-7-|-5-8--|-5-3-|--8--|-3----|
D|---10--------|----7-|-----|---8-|--5---|
G|-------------|------|-----|-----|---5--|


saxo            x2     x2
E|---88--8---|------|-3---|-----|-----5-3--|
A|--8--8--87-|-5-8--|--5--|-3---|-33-1-----|
D|-----------|----7-|---5-|--5--|----------|
G|-----------|------|-----|---5-|----------|

                x2
E|---88--8---|------|-6----------|---------|
A|--8--8--87-|-5-8--|--4-68-68-6-|-464-----|
D|-----------|----7-|------------|----666--|
G|-----------|------|------------|---------|

E|------------|--------|
A|--333-3-----|-8-8/0--|
D|--------5-3-|--------|
G|------------|--------|
alguien puede cantar esto
es muy alto
yo no puedo
pero que linda cancion
atte. miauricio gatolar
Suggest correction
Give kudos to tab author, rate the tab!
1 2 3 4 5
comments
print report bad tab
guest
You may want to rate the tab now too:
select rating
Wanna post a correction for this tab? Suggest correction