Oops, an error
Loading. Please wait.

Más Que Amiga Tab

33 views 1 this week
no commentswrite comment
1 2 3 4 5
3 more votes to show rating
add to favorites
launch autoscroll
font size
0
reset
how to read this tab
guitar tuner
×
Best way to learn
"Más Que Amiga"
Autoscroll
slow
fast
+/-
esc
set tempo
stop
¡OJO, CON CAPO EN EL SEGUNDO TRASTE!
Los trastes y acordes siempre se cuentan a partir del capo traste:

Los acordes con apóstrofo (?) SUGIEREN ser formados
con cejilla (más agudos) a partir del traste indicado.

INTRO:
   D             A
e|--------2---5---------0-7-5-|
b|------3---3---------2-------|
g|----2-------------2---------|
d|-0-------------2------------|
a|----------------------------|
E|----------------------------|
           ¡Ay!              Nena...


   G?(3ro)    D                        A
e|-------3--3-------2-----2---2-0--3-2-0-|
b|-----3----------3---------3------------|
g|---4----------2------------------------|
d|-5----------0--------0-----------------|
a|---------------------------------------|
E|---------------------------------------|


ESTROFA:
          D
No puedo más
     A?(5to)
Ocultar lo de este amor
   Bm                      G
Que por ti yo siento hace tiempo

PRE-ESTRIBILLO:
 D                       A?(5to)
Es tan distinto lo que siento
            G?(3ro)                Bm?(m7o)
Quiero que sepas que te llevo muy dentro
           A?(5to)
Que cuando te acercas ya no es como antes
      G                      A
Ahora quiero tenerte junto a mí...
         Bm?(m7o)    A?(5to)    G?(3ro)
Y que te amo sé muy bien amiga mía
         Bm?(m7o)    A?(5to)         G?(3ro)   A
Y que quiero ser para ti más que un amigo..oo...o?
e|-2-0-2-0--3-2-0-|
b|----------------|


ESTRIBILLO:
           D?(5to)
Te quiero dar

Amor, amor?
          A?(5to)
Te voy a dar

Amor, amooor...
        G?(3ro)              D
Ya no podía ocultarlo ni un día más
            A
Todo este amor?

e|-2-0-2-0--3-2-0-|
b|----------------|
(BIS ESTRIBILLO)

           D
Todo este amor


INTERMEDIO 1 (8 VECES):
   D?(5to)
e|--------------7-5------------------|
b|-7-7--------7-----5--5-5-7-8-8-5-7-|
g|-------7--7------------------------|
d|-----7-----------------------------|
a|-----------------------------------|
E|-----------------------------------|

(Mira, siempre te amé en silencio
 ¡Cómo te quiero nena!)

PRE-ESTRIBILLO, ESTRIBILLO,
INTERMEDIO 1
(Mamita,sé que sigues ahí
 En mi mente
 Eh

 Bananas te quiere
 ¡¿Qué qué?!


ESTRIBILLO

INTERMEDIO 2:
e|---------------------------7-5------7-9-10-------10-----|
b|-7-7-7-7----------7-5---5--------10--------8-8------8-8-|
g|-------7-7------7-----7---------------------------------|
d|--------------7-----------------------------------------|
a|------------5-------------------------------------------|
E|--------------------------------------------------------|
            (Dilo George)

e|-----------------|
b|-7-8-10-8--7-7---|
g|---------------9-|
d|-----------------|
a|-----------------|
E|-----------------|

INTERMEDIO 1
¡Cómo te quiero nena!
Eh
Suggest correction
Give kudos to tab author, rate the tab!
1 2 3 4 5
comments
print report bad tab
guest
You may want to rate the tab now too:
select rating
Wanna post a correction for this tab? Suggest correction