Oops, an error
Loading. Please wait.

La Construcción Tab

14 views 1 this week
no commentswrite comment
1 2 3 4 5
3 more votes to show rating
add to favorites
launch autoscroll
font size
0
reset
how to read this tab
guitar tuner
×
Best way to learn
"La Construcción"
Autoscroll
slow
fast
+/-
esc
set tempo
stop
Intro Em C D G B7

e|---------------------------------------
b|---------------------------------------
g|---------------------------------------
d|-2---2-4-5-4-2--2---2-4-4-5-2----------
a|---2--------------3--------------------
E|---------------------------------------

  -------------------------------------------|
  -------------------------------------------|
  -------------------------------------------|
  -5---5-7-8-7-5--5---5-7-8-7--10--8-6-5-6-5-|
  ---7--------------6------------------------|
  -------------------------------------------|


e|--------------------------------------
b|--------------------------------------
g|--------------------------------------
d|-2---2-4-5-4-2--2---2-4-4-5-2---------
a|---2--------------3-------------------
E|--------------------------------------

  -----------------------------------------------|
  -----------------------------------------------|
  -----------------------------------------------|
  -5---5-7-8-7-5--5---5-7-8-7--10--8-6-5-6-5-3-2-|
  ---7--------------6----------------------------|
  -----------------------------------------------|

Em
Esta es la historia que nunca termina,
C
este es el agua que siempre tome
D
este es el tiempo real y es ahora
G                 B7
nunca he podido dejar de creer
Em
Tienen las manos que nos acarician
C
y en la justicia divina creer
D
en los picados jugao's en la esquina
G                                B7
y en nuestras hijos que vemos crecer

 Em                       C
Vengan a la construccion, digan que sera mejor
 D                            G                   B7
mientras suena algun tambor, canten su mejor cancion
Em                        C
armen algo que haga bien, oigan siempre hay que aprender
 D                  G               B7
abran su caparazon, libres, desatandonos

Esta es la historia de todos los dias,
la de mirarse a los ojos y ver,
si en este mundo gano la mentira
vamos a hacer este mundo otra vez

No somos tontos por las utopias
no somos malos por quere placer
ni masoquistas por dar la mejilla
cuando golpean, los que ya sabes

Vengan a la construccion, digan que sera mejor
mientras suena algun tambor, canten su mejor cancion
armen algo que haga bien, oigan siempre hay que aprender
abran su caparazon, libres, desatandonos

Am  G  D  Am       Am  G  D  B7

e|----------------------------|
b|----------------------------|
g|----------------------------|
d|-7/9-9-7-5-4--------4-5-7-4-|
a|-------------5--5-7---------|
E|----------------------------|

e|----------------------------------------------------|
b|----------------------------------------------------|
g|----------------------------------------------------|
d|-7/9-9-7-5-4--4-3--4-3--4-3-4-3--7-6--7-6--7-6--7-6-|
a|----------------------------------------------------|
E|----------------------------------------------------|

Vengan a la construccion, digan que sera mejor
mientras suena algun tambor, canten su mejor cancion
armen algo que haga bien, oigan siempre hay que aprender
abran su caparazon, libres, desatandonos

e|-----------------|
b|-----------------|
g|-----2-4-2-------|
d|---4-------5-4-2-|
a|-2---------------|
E|-----------------|


A escuchar este temazo...
poir ahora el ultimo de hoy,
me quedo subir "tu querer" que esta bastante pedido...
se lo dedico a Joaquin que lo amo...

gente subi algunas de La Perra que los Pario, Borregos Border,
Los Perez Garcia por si quieren chusmear...

hasta la proxima... cualquier duda mi email alla arriba...
Suggest correction
Give kudos to tab author, rate the tab!
1 2 3 4 5
comments
print report bad tab
guest
You may want to rate the tab now too:
select rating
Wanna post a correction for this tab? Suggest correction