Oops, an error
Loading. Please wait.

Río Trinidad tab

by Facón
22 views 1 this week
no commentswrite comment
1 2 3 4 5
3 more votes to show rating
add to favorites
×
Save as Personal and add changes to this tab that will be seen only by you. Learn more ›
×
You can save this tab as Personal to edit and correct it or add notes. All changes will be seen only by you. Learn more »
launch autoscroll
font size
0
reset
how to read this tab
guitar tuner
edit
Autoscroll
slow
fast
+/-
esc
set tempo
stop
--------0-------------0------------0-----------0------
------6---6---------6---6--------6---6-------6---6----
----5-------5-----5-------5----5-------5---5-------5--
-----------------------------0-----------0------------
--8------------7--------------------------------------
------------------------------------------------------


-------0-------------0-------------0---------------------------------
-----6---6---------6---6---------6---6----------------------------------
---5-------5-----5-------5-----5-------5--------------------------------
----------------------------------------------------------------
--------------0--------------------------------------------------
-6---------------------------8-------------------------------------


F            C               Dm
Todo lo que pasa por el rio trinidad
        Gm                       C
no vuelve para aca, no vuelve a su lugar.
 F                  C                 Dm
Cuando los ojos del tiempo vuelvan a mirar
             Gm                   C
ya nada quedara de lo que estuvo aca.
    Bb                          F
Trinidad es solo el paso de la vida,
       Am                          C7
la corriente que nos lleva hacia la mar.

Mansamente corre nuestro rio ya se va
nunca regresara, no para de rodar.
Ya se pone bravo que con furia correra,
cambiante trinidad, serena tempestad.
Quienes ven pasar el tiempo a tus orillas
no tendran el privilegio de llegar.

        F                    Dm
A la orilla del mar cuando soñabamos
       D7            Gm
aparecio la luna llena
    Bb         Bbm           F            Dm
y sentimos el hechizo atraidos por la mar
          Am           C/D
por el cantar de las sirenas.
            F
Valiente es quien se da
                 Dm
a tu caudal sin mas
             D7         Gm
que lo que ordene tu marea.
      Bb           Bbm          F      Dm
Si me ves pasar un dia por el rio trinidad
         Am                C/D
sera que voy rumbo a la arena.

Todo pasa de repente cuando estas aca
que ya no estas aca, que es otro tu lugar.
No hay historia que te cuente comparable a andar
el riesgo de vibrar no se puede contar.
El remanso cuando se une con la brisa,
me recuerda a la tormenta que vendra.

A la orilla de mar...

C/D   X 3 2 0 2 0

            
            
Suggest correction
Creating personal tab
Creating personal tab
You can edit any tab online and save it as your Personal.

You can edit, replace or remove any tab part or add personal notes – all changes will be seen only by you.

Personal tabs can be accessed anytime from any device, even offline.
Learn more »
Give kudos to tab author, rate the tab!
1 2 3 4 5
comments
print report bad tab
guest
Wanna post a correction for this tab? Suggest correction