Oops, an error
Loading. Please wait.

Despierta Mi Angelina Tab

20 views 1 this week
no commentswrite comment
1 2 3 4 5
3 more votes to show rating
add to favorites
×
Save as Personal and add changes to this tab that will be seen only by you. Learn more ›
×
You can save this tab as Personal to edit and correct it or add notes. All changes will be seen only by you. Learn more »
save as personal
new!
launch autoscroll
font size
0
reset
how to read this tab
guitar tuner
Autoscroll
slow
fast
+/-
esc
set tempo
stop
Introducción

e|-------9-------------------------|----------------------------|
B|--10------10--------10---9---9---|---9--12--9-------9--7---7--|
G|---------------11----------------|--------------9-------------|
D|---------------------------------|----------------------------|
A|---------------------------------|----------------------------|
E|---------------------------------|----------------------------|

e|---------------------------------|-------------------0---0----|
B|--7---10--7-------7---5---5------|---2--2--2--2--3------------|
G|--------------7------------------|----------------------------|
D|---------------------------------|----------------------------|
A|---------------------------------|----------------------------|
E|---------------------------------|----------------------------|

e|--0--2--0------0-----4---4-------|---4--7---7--5--5--4--4-----|
B|------------2--------------------|----------------------------|
G|---------------------------------|----------------------------|
D|---------------------------------|----------------------------|
A|---------------------------------|----------------------------|
E|---------------------------------|----------------------------|

e|------4---4---2---0--------------|--9--9--10--9---------------|
B|------------------------3---2----|---------------12---10------|
G|---------------------------------|----------------------------|
D|---------------------------------|----------------------------|
A|---------------------------------|----------------------------|
E|---------------------------------|----------------------------|

e|----0--0---2-------0-------------|
B|---------------3-------2---------|
G|---------------------------------|
D|---------------------------------|
A|---------------------------------|
E|---------------------------------|


LA
Despierta mi Angelina fragancia de azucena
                                   MI7
lucero ya osema nde resáicha oyayái
              RE
epu'ana ejhechami co yvága omimbipáva
            MI7                      LA
ademas ñande encantaba jazmín del Paraguay.


 LA
Despierta mi Angelina que aquí en tu ventana
                                    MI7
péina guyra campana ne rokëme oyeroky
               RE
jha iyïkere mainumby clavelina iyurúpe
              MI7                    LA
purajhéi musicapúpe ne mombáy the Tupäsy.


 LA
Despierta, mi Angelina, ya llega el Dios del día
                                    MI7
epu'ãna vida mía, reikuaárõ mborayhu
              RE
ne maiteígui rohayhu, nderehe mante apensáva
              MI7                    LA
opa che képe rohecháva, porque rohechaga'u.


LA
Despierta, mi Angelina, palomita mensajera
                                     MI7
che araháta ko nde réra, nichomíme añongatu
               RE
Anohê haguã ahetû, ndavy'áirõ sapy'ánte
               MI7                       LA
adiós, lucero brillante, siempre reina, rohayhu.
Suggest correction
Give kudos to tab author, rate the tab!
1 2 3 4 5
comments
print report bad tab
guest
Wanna post a correction for this tab? Suggest correction