Oops, an error
Loading. Please wait.

Me Recordarás Tab

18 views 1 this week
no commentswrite comment
1 2 3 4 5
3 more votes to show rating
add to favorites
launch autoscroll
font size
0
reset
how to read this tab
guitar tuner
Autoscroll
slow
fast
+/-
esc
set tempo
stop
Help us to improve Ultimate-Guitar.com Take our survey!
×
RITMO: Canción-Huayño TONO: lam

NTRO:lam-lam lam-rem-SolM-DoM-!am-rem-MiM-lam

1<----------------------------
2<------------------10--------
3<-7h9-9-9-7-9----9----9-9-10-
4<-------------10-------------
5<----------------------------
6<----------------------------

1<--------------------------
2<-----------------8--------
3<-5h7-7-7-6-7---7---7-7-9--
4<-------------9------------
5<--------------------------
6<--------------------------


                                  Am
1<--------------------------------
2<-----------------6--------------
3<-4h5-5-5-4-5---5---5-5h7-10-12--
4<-------------7------------------
5<--------------------------------
6<--------------------------------

LAm                             REm
Me recordarás por que me has querido
                        FA 
y al pasar el tiempo mi bien
                  MI 
sentirás la angustia
                LAm
de este amor perdido,
LAm                            REm
y gentes extrañas vendrán a tu vida
                FA 
te hablarán de amor mi bien
                  MI 
y nuestro amor perdido
                  LAm
y nuestro amor perdido.
LAm       REm SOL               DO 
Me recordarás porque me has querido
LAm          REm SOL            DO 
y vas ha llorar  por el amor perdido
               MI                LAm
si al pasar el tiempo un nuevo cariño
             FA                 MI 
tocará a tu puerta pidiéndote amor (Bis).
          LAm
Me recordarás...


Es una canción muy buena.
Saludos a toda la gente de Potosí-Boliva.
Suggest correction
Give kudos to tab author, rate the tab!
1 2 3 4 5
comments
print report bad tab
guest
You may want to rate the tab now too:
select rating
Wanna post a correction for this tab? Suggest correction