Oops, an error
Loading. Please wait.

Búscame Tab

32 views 1 this week
no commentswrite comment
1 2 3 4 5
3 more votes to show rating
add to favorites
launch autoscroll
font size
0
reset
how to read this tab
guitar tuner
×
Best way to learn
"Búscame"
Autoscroll
slow
fast
+/-
esc
set tempo
stop
Este es el intro de Buscame.
Se repite varias veces en la cancion.


E|---------------|--------------|---------------------|
B|---------------|--------------|---------------------|
G|---------------|--------------|---------------------|
D|---------9-----|---------9----|---------9---9-------|
A|--7-9-10---7---|--7-9-10---7--|--7-9-10---7---------|
E|---------------|--------------|---------------------|


E|----------------|------------------|---------------------|
B|----------------|------------------|---------------------|
G|--11--9---7-7-7-|--11-9--7--11--9--|--12--11--9-9-9------|
D|--12--10--7-7-7-|--12-10-7--12--10-|--14--12--9-9-9------|
A|----------------|------------------|---------------------|
E|----------------|------------------|---------------------|


E|---------------------|--------------------------------------12121212--|
B|---------------------|------------------------------------------------|
G|--12--11--9--12--11--|--11-9--7-7-7---11--9---7--11--9---12-----------|
D|--14--12--9--14--12--|--12-10-7-7-7---12--10--7--12--10--14-----------|
A|---------------------|------------------------------------------------|
E|---------------------|------------------------------------------------|


E|----------------|------------------|---------------------|
B|----------------|------------------|---------------------|
G|--11--9---7-7-7-|--11-9--7--11--9--|--12--11--9-9-9------|
D|--12--10--7-7-7-|--12-10-7--12--10-|--14--12--9-9-9------|
A|----------------|------------------|---------------------|
E|----------------|------------------|---------------------|


E|---------------------|------------------------------------|
B|---------------------|------------------------------------|
G|--12--11--9--12--11--|--11-9--7-7-7---11--9---7--11--9----|
D|--14--12--9--14--12--|--12-10-7-7-7---12--10--7--12--10---|
A|---------------------|------------------------------------|
E|---------------------|------------------------------------|


E|-----------------|     |----------|-----------------------|
B|-8/10-8-7-8-7----|     |--12-10-8-|-8-10-8-7-8-7----------|
G|--------------9--|     |----------|---------------9-------|
D|-----------------|     |----------|-----------------------|
A|-----------------|     |----------|-----------------------|
E|-----------------|     |----------|-----------------------|


Gracias,
Febrero 14, 2012
Suggest correction
Give kudos to tab author, rate the tab!
1 2 3 4 5
comments
print report bad tab
guest
You may want to rate the tab now too:
select rating
Wanna post a correction for this tab? Suggest correction