Oops, an error
Loading. Please wait.

Jardín De Amor Tab

24 views 1 this week
no commentswrite comment
1 2 3 4 5
3 more votes to show rating
add to favorites
launch autoscroll
font size
0
reset
how to read this tab
guitar tuner
×
Best way to learn
"Jardín De Amor"
Autoscroll
slow
fast
+/-
esc
set tempo
stop
Aca les paso 'Jardin de Amor', tambien la tocaron Los Destellos.
(Busquen la cancion en youtube)


1|--------9-----7--------|
2|-----10---7-9---9-7----|
3|--11----------------9--| (x3)
4|-----------------------|  Esta parte la toca tres veces.
5|-----------------------|
6|-----------------------|

1|-------------|
2|-------------|
3|--11-6-------| (x4)
4|-------------| Esta parte la toca 4 veces
5|-------------|
6|-------------|


1|--------9----9-------|----------------------------|
2|-----10---12---12-10-|-----10-12-10-14------------|
3|--11-----------------|--11------------------------|
4|---------------------|----------------------------|
5|---------------------|----------------------------|
6|---------------------|----------------------------|

Gracias,
Rodrigo 1 de Noviembre del 2011.
Suggest correction
Give kudos to tab author, rate the tab!
1 2 3 4 5
comments
print report bad tab
guest
You may want to rate the tab now too:
select rating
Wanna post a correction for this tab? Suggest correction