Oops, an error
Loading. Please wait.

Quinciañera Tab

48 views 1 this week
no commentswrite comment
1 2 3 4 5
3 more votes to show rating
add to favorites
launch autoscroll
font size
0
reset
how to read this tab
guitar tuner
Autoscroll
slow
fast
+/-
esc
set tempo
stop
Help us to improve Ultimate-Guitar.com Take our survey!
×
e|--7-7p5-------7-7p5------777-9-7--------------999-10-9----------------
b|--------7-----------7------------10-8-8h10-------------12-10-10h12----
g|----------7-----------7--------------------9-----------------------11-
D|----------------------------------------------------------------------
A|----------------------------------------------------------------------
E|----------------------------------------------------------------------


e|-7-7p5-------7-7p5-----777-9-7-----------------9--------9-12-10-1010-
b|-------7-----------7-----------10-8-8h10----10---10-8-10-----12-1212-
g|---------7-----------7-------------------9---------------------------
D|---------------------------------------------------------------------
A|---------------------------------------------------------------------
E|---------------------------------------------------------------------

e|---9-10-9--9-10-14--9--9-9--------9--------9-12-10-1010----|
b|-12------12---------10-1010--10-12-12-10-12-----12-1212----|
g|-----------------------------------------------------------|x2
D|-----------------------------------------------------------|
A|-----------------------------------------------------------|
E|-----------------------------------------------------------|

e|----------------10----------------------------9-------------------|
b|-10-12-10--10-12----8h10-8-8h10---8-10-8--8-10--10h12-10-10h12----|
g|---------11--------------------9--------9----------------------11-|
D|------------------------------------------------------------------|
A|------------------------------------------------------------------|
E|------------------------------------------------------------------|


e|----------------10----------------------------9--10-1010--|
b|-10-12-10--10-12----8h10-8-8h10---8-10-8--8-10---12-1212--|
g|---------11--------------------9--------9-----------------|
D|----------------------------------------------------------|
A|----------------------------------------------------------|
E|----------------------------------------------------------|
Suggest correction
Give kudos to tab author, rate the tab!
1 2 3 4 5
comments
print report bad tab
guest
You may want to rate the tab now too:
select rating
Wanna post a correction for this tab? Suggest correction