Oops, an error
Loading. Please wait.

Te Perdí Tab

16 views 1 this week
no commentswrite comment
1 2 3 4 5
3 more votes to show rating
add to favorites
launch autoscroll
font size
0
reset
how to read this tab
guitar tuner
×
Best way to learn
"Te Perdí"
Autoscroll
slow
fast
+/-
esc
set tempo
stop
Este es el intro de Te Perdi, se repite varias veces en la cancion.
Espero que les sirva.

E|---------------|--------------|-------------------|
B|---------------|--------------|-------------------|
G|---------------|--------------|-------------------|
D|----7-9--11----|----7-9-11----|-14-14-14-11-9-----|
A|--9------------|--9-----------|-------------------|
E|---------------|--------------|-------------------|

E|---------------|--------------|-------------------|
B|---------------|--------------|-------------------|
G|---------------|--------------|-------------------|
D|----7-9--11----|----7-9-11----|-14-14-14-11-9-----|
A|--9------------|--9-----------|-------------------|
E|---------------|--------------|-------------------|


E|--------------------|-----------------|----------------------------|
B|--------------------|-----------------|----------------------------|
G|--------------------|-----------------|----------------------------|
D|--11-9----9-9-------|-11-9----9-9-----|--11-9----------------------|
A|-------12-----9-----|------12-----9---|-------12-14-14-14-12-14-12-|
E|--------------------|-----------------|----------------------------|


E|--------------------|-9-7--------------|-9-7---------------|
B|--------------------|-----10-12-12-7---|-----10-12-12-7----|
G|--------------------|------------------|-------------------|
D|--------------------|------------------|-------------------|
A|--------------------|------------------|-------------------|
E|-16--14-14-14-14----|------------------|-------------------|


E|--9-7-----------------------------------------------|
B|------10-12-12-12-10-12-10--------------------------|
G|---------------------------13-11-11-11-11-----------|
D|----------------------------------------------------|
A|----------------------------------------------------|
E|----------------------------------------------------|


Gracias,
Febrero 14, 2012
Suggest correction
Give kudos to tab author, rate the tab!
1 2 3 4 5
comments
print report bad tab
guest
You may want to rate the tab now too:
select rating
Wanna post a correction for this tab? Suggest correction