Oops, an error
Loading. Please wait.

Tomaré Para Olvidar Tab

97 views 1 this week
no commentswrite comment
1 2 3 4 5
3 more votes to show rating
add to favorites
launch autoscroll
font size
0
reset
how to read this tab
guitar tuner
Autoscroll
slow
fast
+/-
esc
set tempo
stop
Help us to improve Ultimate-Guitar.com Take our survey!
×
F#m               C#m
Días y días sin verte
F#m                    C#m
Noches y noches sin tenerte
         D
Pasa el tiempo
                 C#
y no puedo olvidarme de ti


-Esta parte va con distorcion-

------------------------------------------------------------
------------------------------------------------------------
--------6--4----4--------------6-4----------6-4--4----------
-4-4--7-------7---7-4----4-4-7--------4-4-7-----7--7-4------
----------------------7--------------------------------7----
------------------------------------------------------------


------------------------------------------------------------
------------------------------------------------------------
------------------------------------------------------------
-4-7-----4----------x2--------------------------------------
-----7-7----------------------------------------------------
------------------------------------------------------------

-esta parte va sin distorcion,canal limpio-

---------------------------------9-7----7p9-9-9-------------
-------------------------------------10---------------------
-11-9-----9p11-11-11----------------------------------x2----
-------11---------------------------------------------------
------------------------------------------------------------
------------------------------------------------------------


-9p12-12--9-----9--12--9----9-9-9-----9p12-12-9----9-12--9--
-------------12----------12---------------------12----------
------------------------------------------------------------
------------------------------------------------------------
------------------------------------------------------------
------------------------------------------------------------


-----9--------------------10p9p7---9------------------------
-12----10----------------------------10---------------------
----------11----x2------------------------------------------
------------------------------------------------------------
------------------------------------------------------------
------------------------------------------------------------


F#m               C#m
Tomare para olvidar (riff)
                  F#m               C#m
Tomare para olvidar
F#m                           C#m
Por que se que tu jamás volveras
    A          E             A
Cerveza ron y vino para olvidar
   A             E             F#m
Recuerdos imborrables para llorar
    A          E             A
Cerveza ron y vino para olvidar
   A             E             F#m
Recuerdos imborrables para llorar


-9p12-12--9-----9--12--9----9-9-9-----9p12-12-9----9-12--9--
-------------12----------12---------------------12----------
------------------------------------------------------------
------------------------------------------------------------
------------------------------------------------------------
------------------------------------------------------------


-----9--------------------10p9p7---9------------------------
-12----10----------------------------10---------------------
----------11----x2------------------------------------------
------------------------------------------------------------
------------------------------------------------------------
------------------------------------------------------------


   A
Devuélveme el amor
   D            A
Devuélveme los besos
                                 E
Besos que me robaste con tus mentiras
            F#m
Con tus mentiras
   A
Devuélveme el amor
   D            A
Devuélveme los besos
                                 E
Besos que me robaste con tus mentiras
            F#m
Con tus mentiras

-empieza de nuevo en la parte de canal limpio-


punteo final:

---------------------------------------7p9--7----7--9--9--9----
----------------------------------------------10---------------
-----9--11-9----9-11-9-----9p11--9-9---------------------------
--11---------11---------11-------------------------------------
---------------------------------------------------------------
---------------------------------------------------------------


-----------------------------------7p9--7----------------------
------------------------------------------10--9--7-7--7--------
----9-11-9----9-11-9----9p11--9-9------------------------------
-11--------11--------11----------------------------------------
---------------------------------------------------------------
---------------------------------------------------------------


Riff:

--9-11--12-11---9-12--11--9------------------------------------
---------------------------------------------------------------
---------------------------------------------------------------
---------------------------------------------------------------
---------------------------------------------------------------
---------------------------------------------------------------


Bueno esto es todo el tema.... espero q les guste....
cualquier duda escribime a mi mail: leocastro_11@

saludos!

Tema dedicado para BRIAN ARAGON!  jaja
Suggest correction
Give kudos to tab author, rate the tab!
1 2 3 4 5
comments
print report bad tab
guest
You may want to rate the tab now too:
select rating
Wanna post a correction for this tab? Suggest correction