Oops, an error
Loading. Please wait.

Por Qué Te Fuiste Tab

11 views 1 this week
no commentswrite comment
1 2 3 4 5
3 more votes to show rating
add to favorites
launch autoscroll
font size
0
reset
how to read this tab
guitar tuner
×
Best way to learn
"Por Qué Te Fuiste"
Autoscroll
slow
fast
+/-
esc
set tempo
stop
Intro y Solo de la cancion.

e------------------------------------------------------------
B--------5-3-3/5~--3-5-3---------------3-1-1/3~--1-3-1-------
G-4-3-4------------------5-4-2~--2-1-2-----------------4-2-0-

E-------------------------------------------------------
B-------------------------------------------------------
G-------5-4-5~--4-5-4--2-0------------------------------
D-5-4-5-------------------4~-4h5-4-2-0------------------
A-------------------------------------5/7--5-5h7--------
E-------------------------------------------------7-5-0-


-------------------------------------------------
Regresa..!!
mendiga ingrata...
aun te amo..!!!

Saludos
Suggest correction
Give kudos to tab author, rate the tab!
1 2 3 4 5
comments
print report bad tab
guest
You may want to rate the tab now too:
select rating
Wanna post a correction for this tab? Suggest correction