Oops, an error
Loading. Please wait.

Por Tí Tab

9 views 1 this week
no commentswrite comment
1 2 3 4 5
3 more votes to show rating
add to favorites
launch autoscroll
font size
0
reset
how to read this tab
guitar tuner
×
Best way to learn
"Por Tí"
Autoscroll
slow
fast
+/-
esc
set tempo
stop
*- vibrato
h- hamer on
/- slide

Comentarios   mike10871087@

Hace tanto tiempo que te vi marchar

e-2h3-2------------------------------------------
B-----------4-5-2--------------------------------
G--------------------3-1*------------------------

Me quede tan solo con mi soledad

e------------------------------------------------
B----2-2-2-2-2*----------------------------------
G------------------------------------------------

Es que ya ni me acuerdo por que te perdi

e-2h3-2------------------------------------------
B----------4-5-2------2*-------------------------
G-------------------2----------------------------


Por ti ya no canto al amor y te apuesto que tu ni te acuerdas de mi
de miiiiiii

e-1/2-1---2/1-2/1-2/1-2/1?1*---------------------
B--------4----4---4---4----4---------------------
G------------------------------------------------

e------------------------------------------------
B-2-4h6-4-2?4h6-4-2---4h6-4-2-4*-----------------
G------------------------------------------------

e------------------------------------------------
B-0-2/4-2-0-2/4-2-0-2/4-2-0-2*-------------------
G------------------------------------------------

e-2-4-6-7*---------------------------------------

en  la vida siempre suele????..
fin

Esta es mi primer trascripción espero les guste?
Un saludo a los kru-2 de Querétaro una excelente banda de rock
Toño recuerda DO es RE
Suggest correction
Give kudos to tab author, rate the tab!
1 2 3 4 5
comments
print report bad tab
guest
You may want to rate the tab now too:
select rating
Wanna post a correction for this tab? Suggest correction