Oops, an error
Loading. Please wait.

Cuando Más Me Enamoré Chords

2 views 1 this week
no commentswrite comment
1 2 3 4 5
3 more votes to show rating
add to favorites
launch autoscroll
font size
0
reset
transpose
0
reset
display chords
guitar tuner
Autoscroll
slow
fast
+/-
esc
set tempo
stop
Help us to improve Ultimate-Guitar.com Take our survey!
×
Armoniza en LA menor

e-8-5--8-8-8-10-8-7-3--7-7-7-8-7-5-1--5-5-5-7-5-4-7-
B---------------------------------------------------
G-9-5--9-9-9-10-9-7-4--7-7-7-9-7-5-2--5-5-5-7-5-4-7-
D---------------------------------------------------
A---------------------------------------------------
E---------------------------------------------------

e---10-10--8-8--7-7--5-5--5-5-7-8-8-7--5-5-7-8-8-7-5-
B----------------------------------------------------
G-10-----9----7----5------5-5-7-9-9-7--5-5-7-9-9-7-5-
D----------------------------------------------------
A----------------------------------------------------
E----------------------------------------------------
     Am                        G
Que triste es saber que te he perdido
             F
Cuando mas, mas te necesito, cuando
            E
Mas me enamore.
    Am                     G
Me duele al saber que tu jugabas 
              F
Cuando de mi todo te daba, sin pensar
        E
En recibir
      F                                 E
Pero se que algun dia nos volveremos a ver
     F                                      E
Ya sabras que las piedras rodando se enontraran.
    Am                           G
Te quiero pues que no vez en mis ojos, estas
              F
Ansias de un hombre loco, que perdio a quien
    E
Mas amo.
      Am                       G
Y prefiero despedirme de esta vida, a menos que
       F                         E
Tu me digas, que volvamos a intentar
Suggest correction
Give kudos to tab author, rate the tab!
1 2 3 4 5
comments
print report bad tab
guest
You may want to rate the tab now too:
select rating
Wanna post a correction for this tab? Suggest correction