Oops, an error
Loading. Please wait.

Enséñame A Olvidar Tab

15 views 1 this week
no commentswrite comment
1 2 3 4 5
3 more votes to show rating
add to favorites
launch autoscroll
font size
0
reset
how to read this tab
guitar tuner
×
Best way to learn
"Enséñame A Olvidar"
Autoscroll
slow
fast
+/-
esc
set tempo
stop
Hola que tal, aqui les dejo la tablatura de Enseñame a olvidar de Grupo Mojado,
espero les guste.

Cualquier duda, comentario o corrección, estoy a sus ordenes.

Saludos

Esta canción esta en Sol menor, Gm


E------------------15--13--15-15--13--15----13--15--13------------
B------------------------------------------------------16-15-13---
G-----15-15-15-15-------------------------------------------------
D-----------------------------------------------------------------
A-----------------------------------------------------------------
E-----------------------------------------------------------------

E------------------13--11--13-13--11--13----11--13--11------------
B------------------------------------------------------15-13-11---
G-----14-14-14-14-------------------------------------------------
D-----------------------------------------------------------------
A-----------------------------------------------------------------
E-----------------------------------------------------------------

E------------------11--10--11-11--10--11----10--11--10------------
B------------------------------------------------------13-11-10---
G-----12-12-12-12-------------------------------------------------
D-----------------------------------------------------------------
A-----------------------------------------------------------------
E-----------------------------------------------------------------

E-----------------------------------
B-----10-11-10--8-7-7/8-------------
G-----------------------------------
D-----------------------------------
A-----------------------------------
E-----------------------------------


Mientras la guitarra hace eso, los demas acompañan en:

Gm,Cm,F,A#,Am,Gm


                    Gm
Me pides que te olvide
     Cm
Mas no se como
                  F
Me dices que lo nuestro
               A#   A#
No puede continuar.

          Am           Gm
Se que asi es facil decirme
      Cm
Que ahora me quieres dejar
                  D7
Yo tambien he querido
               Gm
Pero no puedo ya.

               Gm
Dime como olvidarte
     Cm
De que manera
           F
Dime como olvidar
              A#  A#
Tu modo de besar.

   Am            Gm
Devuelveme mis besos
    Cm
Entregame el corazón
                  D7
Y ese llanto que tanto
              Gm    G7
Salio con tu amor.

                 Cm
Ó enseñale a mi alma
                    F
A que aprenda a no buscarte mas
                A#   A#
Enseñale a olvidarte
         Am      Gm
Aunque creo que nunca podras.

                Cm
Porque tu le robaste
               D7
El sentido de mi corazón
                    Gm   G7
Desde hace tiempo atras.

                 Cm
Ó enseñale a mi alma
                    F
A que aprenda a no buscarte mas
                A#   A#
Enseñale a olvidarte
         Am      Gm
Aunque creo que nunca podras.

                Cm
Porque tu le robaste
               D7
El sentido de mi corazón
                    Gm
Desde hace tiempo atras.


E----------------
B----------------
G----------------
D----------------
A----------------
E---2--4--5--------
Suggest correction
Give kudos to tab author, rate the tab!
1 2 3 4 5
comments
print report bad tab
guest
You may want to rate the tab now too:
select rating
Wanna post a correction for this tab? Suggest correction