Oops, an error
Loading. Please wait.

Sin Sal Ni Limón Tab

65 views 1 this week
no commentswrite comment
1 2 3 4 5
3 more votes to show rating
add to favorites
launch autoscroll
font size
0
reset
how to read this tab
guitar tuner
Autoscroll
slow
fast
+/-
esc
set tempo
stop
Help us to improve Ultimate-Guitar.com Take our survey!
×
Hola amigos de LaCuerda esta canción esta buena si tienen
alguna duda por favor háganmelo saber O.K.
Por supuesto es dedicada para mis camaradas
Alfredo, Javier, Uriel, Iván, José Delgado, Alejandro,
y José P. de la escuela preparatoria 116 de Toluca un
saludo para ellos.
Introducción:
 |-----------------------0----|
 |-----------------------1----|
 |-----------------------0----|
 |-----------------------2----|
 |------3-5-7-5-3-5-3-0--3----|
 |--3-5------------------3----|
     F                 G
Esta vida me sabe a cebolla sin sal, ni limón??
 |--------------------|
 |--------------------|
 |---------------7-5--|
 |-----------5---7-5--|
 |-3-3-3-5/7----------|
 |--------------------| X2
C-A -F-G-C
C
Cuando estabas,
 |--------------------|
 |--------------------|
 |--------------------|
 |--------------------|
 |----3-5-3---3-------|
 |-3-5------5---------|
(Seguimos en C)
Y me amabas,
 |--------------------|
 |--------------------|
 |--------------------|
 |--------------------|
 |-2/3---2--0---------|
 |--------------------|
       Am
Me querías y adorabas,
      F             G                    Am
Y la vida sabia a cereza con crema y licor
 |--------------------|
 |--------------------|
 |---------------7-5--|
 |-----------5---7-5--|
 |-3-3-3-5/7----------|
 |--------------------| X2
C
Tu te fuiste,
 |--------------------|
 |--------------------|
 |--------------------|
 |--------------------|
 |----3-5-3---3-------|
 |-3-5------5---------|
Me dejaste,
 |--------------------|
 |--------------------|
 |--------------------|
 |--------------------|
 |-2/3---2--0---------|
 |--------------------|
          Am
Te marchaste y me olvidaste,
       F              G                C
Y la vida repentinamente cambio de sabor.
 |---8--6--5-3---5---3--1------|
 |-9--7--5--3--5-----3--2------|
 |-----------------------------|
 |-----------------------------|
 |-----------------------------|
 |-----------------------------|
F                   G
Sabe a cebolla sin sal ni limón,
F                   G
Todo es tristeza en mi corazón,
C                           Am
Sufro si extrañándote, añorándote, recordándote,
       F               G                  C
Esta vida me sabe a cebolla sin sal ni limón.
Requinto:las partes en blanco las toca el piano
 |---
Suggest correction
Give kudos to tab author, rate the tab!
1 2 3 4 5
comments
print report bad tab
guest
You may want to rate the tab now too:
select rating
Wanna post a correction for this tab? Suggest correction