Oops, an error
Loading. Please wait.

Yo Comencé La Broma Tab

535 views 3 this week
no commentswrite comment
1 2 3 4 5
3 more votes to show rating
add to favorites
launch autoscroll
font size
0
reset
how to read this tab
guitar tuner
×
Best way to learn
"Yo Comencé La Broma"
Autoscroll
slow
fast
+/-
esc
set tempo
stop
Dedicada para mi muñequita Lilinda te amo Chiquita
Sabes que siempre estare a tu lado

NOTA: Los acordes se tocan con Un Rasgueo
                 ABAJO-ARRIBA-ABAJO-ABAJO

Intro:
      G        Bm           C           D
|e|-3--3--|---7--7--|---8--8--|--10----10-|
|b|--3----|----7----|----8----|----10-----|
|g|---4---|-----7---|-----9---|------11---|
|d|-------|---------|---------|-----------|
|a|-------|---------|---------|-----------|
|e|-------|---------|---------|-----------|

      G        Bm           C           D
|e|-3--3--|---7--7--|---8--8--|--10----10-|
|b|--3----|----7----|----8----|----10-----|
|g|---4---|-----7---|-----9---|------11---|
|d|-------|---------|---------|-----------|
|a|-------|---------|---------|-----------|
|e|-------|---------|---------|-----------|


G          Bm     C
La vez que lloró
         D           G     Bm    C
fue una broma la que hice
     D           G      Bm    C
que tonto en verdad fui
    D         G     Bm    C    D
la broma fue para mí...........oh si.


 G        Bm      C
Le quise explicar
         D        G    Bm   C
que era todo una broma
       D       G     Bm    C
no me quiso escuchar
      D      G    Bm    C   D
y llorando partió.


C   Bm           C
Ah, ah, donde andará
         D              G    G7
vida, mi amor, en soledad
       Bm            Em
pero andar con el dolor sin
      C               D
su calor no quiero vivir.


      G   Bm        C
Pero hay para lograr
             D     G        Bm   C
que vuelva a mí por siempre
    D          G   Bm   C
tendré que partir
   D            G     Bm   C
seguirla hasta el fin.


G   Bm C   D
Ah, ah, ah, ah

    G        Bm       C         D      G    Bm    C       D
e|-10-10-7-8-10-7-|---------7-8-8-8-8-10-7-10-|---------------|
b|----------------|-8/10-10-------------------|-8/7-7-7-10----|
g|----------------|---------------------------|------------8--|
d|----------------|---------------------------|---------------|
a|----------------|---------------------------|---------------|
e|----------------|---------------------------|---------------|

    G   Bm C   D      G           Bm          C          D
e|-------------8---|-10-10-10-10-12-12-12-12-14-14-14-14-|
b|--8/7-7-7-10-----|-------------------------------------|
g|-----------------|-------------------------------------|
d|-----------------|-------------------------------------|
a|-----------------|-------------------------------------|
e|-----------------|-------------------------------------|

G        Bm      C
Le quise explicar
         D        G    Bm   C
que era todo una broma
       D       G     Bm    C
no me quiso escuchar
      D      G    Bm    C   D
y llorando partió.


C   Bm           C
Ah, ah, donde andará
         D              G    G7
vida, mi amor, en soledad
       Bm            Em
pero andar con el dolor sin
      C               D
su calor no quiero vivir.


      G   Bm        C
Pero hay para lograr
             D     G        Bm   C
que vuelva a mí por siempre
    D          G   Bm   C
tendré que partir
   D            G     Bm   C
seguirla hasta el fin.


G   Bm C   D     G
Ah, ah, ah, ah

       A         SSSSS
      A A        SS
     A   A       SSSSS
    AAAAAAA         SS
   A       A     SSSSS
Suggest correction
Give kudos to tab author, rate the tab!
1 2 3 4 5
comments
print report bad tab
guest
You may want to rate the tab now too:
select rating
Wanna post a correction for this tab? Suggest correction