Oops, an error
Loading. Please wait.

Conmigo Te Gustó Tab

7 views 1 this week
no commentswrite comment
1 2 3 4 5
3 more votes to show rating
add to favorites
launch autoscroll
font size
0
reset
how to read this tab
guitar tuner
Autoscroll
slow
fast
+/-
esc
set tempo
stop
Help us to improve Ultimate-Guitar.com Take our survey!
×
e|---6--8--10--8--10--8--10--8--10--6--8-------8--5--8--5--6
B|----------------------------------------------------------
G|----------------------------------------------------------

e|---3--5--6--3--1--1---------------------------------------
B|----------------------------------------------------------
G|----------------------------------------------------------


e|---6--8--10--8--10--8--10--8--10--6--8-------8--5--8--5--6
B|----------------------------------------------------------
G|----------------------------------------------------------

e|---3--5--6--11--10----------------------------------------
B|----------------------------------------------------------
G|----------------------------------------------------------
Suggest correction
Give kudos to tab author, rate the tab!
1 2 3 4 5
comments
print report bad tab
guest
You may want to rate the tab now too:
select rating
Wanna post a correction for this tab? Suggest correction