Oops, an error
Loading. Please wait.

Te Arrepentirás Tab

version 1
version 1

Whole song

29 views 1 this week
no commentswrite comment
1 2 3 4 5
3 more votes to show rating
add to favorites
launch autoscroll
font size
0
reset
how to read this tab
guitar tuner
×
Best way to learn
"Te Arrepentirás"
Autoscroll
slow
fast
+/-
esc
set tempo
stop
Riff intro

1|-5-3-1-3-1-0--
2|--------------
3|--------------
4|--------------
5|--------------
6|--------------


A un solo rasgado por nota:

Riff intro acaba con la primera nota(rem)

Te fuiste lejos de mi
    REm            FA 
Me dejaste por otro amor
     DO              FA 

Teclado (rem faM doM faM)x2

Intro 1(x2):

1|----------------------------
2|----------------------------
3|----------------------------
4|-----------------5-5--------
5|-----5-7-----5-7-----7-5----
6|-5-8-----5-8-------------8--

1|----------------------------------
2|----------------------------------
3|----------------------------------
4|---------------------7-7----------
5|------8-10------8-10-----10-8-----
6|-8-10------8-10---------------10--

Teclado (rem faM doM faM)x2

Intro 2(variacion del Intro 1):

1|----------------------------
2|----------------------------
3|----------------------------
4|-----------------5-5--------
5|-----5-7-----5-7-----7-5----
6|-5-8-----5-8-------------8--

1|----------------------------------
2|----------------------------------
3|----------------------------------
4|---------------------7-7----------
5|------8-10------8-10-----10-8-----
6|-8-10------8-10---------------10--

1|---------------------8-8----------
2|------8-10------8-10-----10-8-----
3|-7-10------7-10---------------10--
4|----------------------------------
5|----------------------------------
6|----------------------------------

1|-----------------5-5--------
2|-----6-8-----6-8-----8-6----
3|-5-7-----5-7-------------7--
4|----------------------------
5|----------------------------
6|----------------------------


Versos:

Te fuiste lejos de mi
     REm            FA 
Me dejaste por otro amor
      DO             FA 
Destrozaste mi alma con tu adiós
       LA#     LA   RE 

Yo que te entregaba todo mi amor
REm                          FA 
Pensando que tu me querías de verdad
   DO                            FA 
Pero tu solo jugabas con mis sentimientos
     LA#       LA            RE 

Internedio:(REm FA  DO  FA )x2

(Que tonto fui por creer en ti)


Coro:

Te arrepentirás
   REm
Te arrepentirás de mi gran amor
   FA                  DO   FA 
Y se que volverás
   REm
Yo se que volverás conmigo otra vez
   FA                  DO       FA 

Te arrepentirás
   REm
Te arrepentirás de mi gran amor
   FA                  DO   FA 
Y se que volverás
   REm
Yo se que volverás conmigo otra vez
   FA                  DO       FA 

Y ya no habrá
  REm
Oportunidad para nuestro amor
 FA               DO      FA 

Teclado (rem faM doM faM)x2

Intro 1(x2)

Intro 2

Versos:

Te fuiste lejos de mi
     REm            FA 
Me dejaste por otro amor
      DO             FA 
Destrozaste mi alma con tu adiós
       LA#     LA   RE 

Yo que te entregaba todo mi amor
REm                          FA 
Pensando que tu me querías de verdad
   DO                            FA 
Pero tu solo jugabas con mis sentimientos
     LA#       LA            RE 

Internedio:(REm FA  DO  FA )x2

(Que tonto fui por creer en ti)

Coro:

Te arrepentirás
   REm
Te arrepentirás de mi gran amor
   FA                  DO   FA 
Y se que volverás
   REm
Yo se que volverás conmigo otra vez
   FA                  DO       FA 

Te arrepentirás
   REm
Te arrepentirás de mi gran amor
   FA                  DO   FA 
Y se que volverás
   REm
Yo se que volverás conmigo otra vez
   FA                  DO       FA 

Y ya no habrá
  REm
Oportunidad para nuestro amor
 FA               DO      FA 

Internedio:(REm FA  DO  FA )x2

Coro:

Te arrepentirás
   REm
Te arrepentirás de mi gran amor
   FA                  DO   FA 
Y se que volverás
   REm
Yo se que volverás conmigo otra vez
   FA                  DO       FA 

Te arrepentirás
   REm
Te arrepentirás de mi gran amor
   FA                  DO   FA 
Y se que volverás
   REm
Yo se que volverás conmigo otra vez
   FA                  DO       FA 
Y se que volverás
   REm
Yo se que volverás a perdir perdon
   FA                   DO     FA 

Y ya no habrá
  REm
Oportunidad para nuestro amor
 FA               DO      FA 

Teclado (rem faM doM faM)x2

Intro 1(x2)

Intro 1(Teclado)


Esto va para toda la gentita que le gusta Yoga, y en especial
para mi gran amiga MiMi y para mi gran amor Sofia(Mi Princesita),
no es por que se las dedique ah, sino pa que la dediquen, jejeje.
Suggest correction
Give kudos to tab author, rate the tab!
1 2 3 4 5
comments
print report bad tab
guest
You may want to rate the tab now too:
select rating
Wanna post a correction for this tab? Suggest correction