Oops, an error
Loading. Please wait.

Te Arrepentirás tab

version 2
version 2

Whole song

20 views 1 this week
no commentswrite comment
1 2 3 4 5
3 more votes to show rating
add to favorites
×
Save as Personal and add changes to this tab that will be seen only by you. Learn more ›
×
You can save this tab as Personal to edit and correct it or add notes. All changes will be seen only by you. Learn more »
launch autoscroll
font size
0
reset
how to read this tab
guitar tuner
edit
Autoscroll
slow
fast
+/-
esc
set tempo
stop
Bueno esta version esta 100% como en el cd..

Intro

e|-5-3-1-3-1-0--
b|--------------
G|--------------


Te fuiste lejos de mi
    REm            FA 
Me dejaste por otro amor
     DO              REm

***
     REm      FA      DO         REm
e|-1-1---1-1-1------------------------|
b|----3-3---3-1-1----1----------------|
G|---------------2--2-2-0-0----0-2-2--|
D|--------------------------2-2-2---0-| BIS
E|------------------------------------|

      REm   FA       DO           REm
e|-----------------------------------------|
b|---------------1-------------------------|
G|----0-2----0-2--2-0-------0-----0-2-0----|
D|-0-3----0-3--------3---2-3---2-3-----3-0-|
A|----------------------3-----3------------| BIS
E|-----------------------------------------|

REPETIR ***

Te fuiste lejos de mi
     REm            FA 
Me dejaste por otro amor
      DO             REm
Destrozaste mi alma con tu adiós
       DO             REm

Yo que te entregaba todo mi amor
REm                          FA 
Pensando que tu me querías de verdad
   DO                            REm
Pero tu solo jugabas con mis sentimientos
     DO                        REm


      REm   FA       DO           REm
e|-----------------------------------------|
b|-----------1-1---------------------------|
G|-2-2-0--------2-0------------------------| (Que tonto fui
D|------3-0--------3----2-0-0-0---0--------|  por creer en ti)
A|---------------------3---3---3-3---------|


Coro:

Te arrepentirás
   REm
Te arrepentirás de mi gran amor
   FA                  DO   REm
Y se que volverás
   REm
Yo se que volverás conmigo otra vez
   FA                  DO       REm

Te arrepentirás
   REm
Te arrepentirás de mi gran amor
   FA                  DO   REm
Y se que volverás
   REm
Yo se que volverás conmigo otra vez
   FA                  DO       REm

Y ya no habrá
  REm
Oportunidad para nuestro amor
 FA               DO      REm


     REm      FA      DO         REm
e|-1-1---1-1-1------------------------|
b|----3-3---3-1-1----1----------------|
G|---------------2--2-2-0-0----0-2-2--|
D|--------------------------2-2-2---0-| BIS
E|------------------------------------|

      REm   FA       DO           REm
e|-----------------------------------------|
b|---------------1-------------------------|
G|----0-2----0-2--2-0-------0-----0-2-0----|
D|-0-3----0-3--------3---2-3---2-3-----3-0-|
A|----------------------3-----3------------| BIS
E|-----------------------------------------|


Te fuiste lejos de mi
     REm            FA 
Me dejaste por otro amor
      DO             REm
Destrozaste mi alma con tu adiós
      DO              REm

Yo que te entregaba todo mi amor
REm                          FA 
Pensando que tu me querías de verdad
    DO                  REm
Pero tu solo jugabas con mis sentimientos
    DO               REm


      REm   FA       DO           REm
e|-----------------------------------------|
b|-----------1-1---------------------------|
G|-2-2-0--------2-0------------------------| (Que tonto fui
D|------3-0--------3----2-0-0-0---0--------|  por creer en ti)
A|---------------------3---3---3-3---------|


Repetir Coro:

Te arrepentirás
   REm
Te arrepentirás de mi gran amor
   FA                  DO   REm
Y se que volverás
   REm
Yo se que volverás conmigo otra vez
   FA                  DO       REm

Te arrepentirás
   REm
Te arrepentirás de mi gran amor
   FA                  DO   REm
Y se que volverás
   REm
Yo se que volverás conmigo otra vez
   FA                  DO       REm

Y ya no habrá
  REm
Oportunidad para nuestro amor
 FA               DO      REm

      REm   FA       DO           REm
e|-----------------------------------------|
b|-----------1-1---------------------------|
G|-2-2-0--------2-0------------------------|
D|------3-0--------3----2-0-0-0---0--------|
A|---------------------3---3---3-3---------|


Coro:

Te arrepentirás
   REm
Te arrepentirás de mi gran amor
   FA                  DO   REm
Y se que volverás
   REm
Yo se que volverás conmigo otra vez
   FA                  DO       REm

Te arrepentirás
   REm
Te arrepentirás de mi gran amor
   FA                  DO   REm
Y se que volverás
   REm
Yo se que volverás conmigo otra vez
   FA                  DO       REm
Y se que volverás
   REm
Yo se que volverás a perdirme perdon
   FA                   DO    REm

Y ya no habrá
  REm
Oportunidad para nuestro amor
 FA               DO      REm

     REm      FA      DO         REm
e|-1-1---1-1-1------------------------|
b|----3-3---3-1-1----1----------------|
G|---------------2--2-2-0-0----0-2-2--|
D|--------------------------2-2-2---0-| BIS
E|------------------------------------|

      REm   FA       DO           REm
e|-----------------------------------------|
b|---------------1-------------------------|
G|----0-2----0-2--2-0-------0-----0-2-0----|
D|-0-3----0-3--------3---2-3---2-3-----3-0-|
A|----------------------3-----3------------| BIS
E|-----------------------------------------|

baila baila

            
            
Suggest correction
Creating personal tab
Creating personal tab
You can edit any tab online and save it as your Personal.

You can edit, replace or remove any tab part or add personal notes – all changes will be seen only by you.

Personal tabs can be accessed anytime from any device, even offline.
Learn more »
Give kudos to tab author, rate the tab!
1 2 3 4 5
comments
print report bad tab
guest
Wanna post a correction for this tab? Suggest correction