Oops, an error
Loading. Please wait.

Castígala Bass Tab

41 views 1 this week
no commentswrite comment
1 2 3 4 5
2 more votes to show rating
add to favorites
launch autoscroll
font size
0
reset
guitar tuner
Autoscroll
slow
fast
+/-
esc
set tempo
stop
Help us to improve Ultimate-Guitar.com Take our survey!
×
Hola, compadres. Ahora les va un sabroso son del gurpo Guaco
en voz de Gustavo "el chacal" Aguado. ¡¡¡Para ella!!!

Intro:

D ----------------------------------10------10-8---8----8-7---7---|
A -----12--------12----------10-10-----10-8------8----7-----7-----|
E -10------12-12----12-10-10--------------------------------------|
B ----------------------------------------------------------------|

Canción

"Mujer, por tus caprichos... Mujer, por tus mentiras..."

D ----------------------------------------------------------9-10-----|
A ----12-------12------------10-10-------10----10-10-12-13--------10-|
E -10----12-12----12--10-10--------10-10----10-----------------------|
B -------------------------------------------------------------------|

"Trataste de borrar mis esperanzas, hundiendo la confianza de
nuestro corazón..."

D -10--------------------------|
A ----10-8------12-10------10--|
E ---------8-10-------10-8-----|
B -----------------------------|

"Mataste la ilusión de ese sincero amor"...
"Por eso te digo ue yo no sé"...

D -----------------------|
A -8---8---7-------------|
E ---8---8---7-----5--5--|
B -------------5---------|

"Por qué te quise..."

D ------------------------------|
A ----12-------12----12---------|
E -10----12-12----12------------|
B ----------------------13-10---|

"No sé... por qué te quiero..."

D -------------------------------|
A -------------------------------|
E -----10-10----10----------6-8--|
B -8-8--------8-----6-8--10------|

"No sé por qué te extraño todavía, si tú no me querías,
y nunca me querrás..."

D ---------------------------------|
A ---------------------------------|
E ---8-------8-10-10---10--8-------|
B -8---8--6----------8-------8--6--|

"Si tu no me querías, y nunca me querrás..."

D ------------------------------|
A --------------------------8---|
E -8-10-10----10-8-------8------|
B ----------8------8--6---------|

"Ahora yo estoy mejor, me siento más contento..."

D -----------------|---------|
A -8-7-8-----------|---------|
E -------8---------|----7----| (rápidamente)
B ----------6------|-5-------|

D --------------|
A --------------|
E ---7-5---5----|
B -5-----5---5--|

"Y tú estarás llorando, y mira yo lo siento..."

D ----------------|
A ----------------|
E ---5---5-3---3--|
B -3---3-----3----|

"Te veré arrepentida y amargada por dentro..."

D ---------------|
A -5-3---3-------|
E -----3---3-1---|
B ---------------|

"Despreciando la vida, sufriendo como yo..."

D -----------------------|
A -3--5-------5--3-------|
E ------5--3-------3--1--|
B -----------------------|

"Despreciando la vida, sufriendo como yo..."

D ------------------------|
A -3-4-5-----5-3----------|
E -------5-3------3--1----|
B ------------------------|

Pre-coro

D ---------------3-3--------|
A -5-5---5-3-3--------6-5---|
E -----3--------------------|
B --------------------------|

Coro-Montuno ("¡¡¡Castígala!!! ¡¡¡Por eso castígala!!!")

D ----------------------|
A ---3-5-5---5-3--------|
E -1-------3------3-1---| (Varias veces. Se vale improvisar.)
B ----------------------|

D -------5--------------|
A -3-5-5---5-3----------|
E -------------3-1------| (Alternar. Se vale improvisar.)
B ----------------------|

Mambo (entrada):

D ---------------------|
A ---3-----------------|
E -3---3-5-6-5-6-5-3---|
B ---------------------|

D ---------------------------|
A ---3-------5-5--8-5--------|
E -3---3-5-6----------5-3----|
B ---------------------------|

Mambo (Los mismos arreglos del montuno, con ligeros cambios).
Coro-montuno (se vale improvisar)
Moña (Igual al coro montuno)
Coro-montuno

Final:

D -------------------|
A -3-4-5----5-3------|
E --------3-----3-1--| (2 veces)
B -------------------|

Esta es toda la canción. Tiene sus detalles, pero está bien
completa. Recuerden bajar el tono de la última cuerda (De E a B) y
seguir la afinación. No dejen de oír la canción las veces
necesarias para agarrar el ritmo y darle más sabor.
Si han fracasado en el amor, tienen 3 opciones:
Seguir en la brega, jugar al otro bando o, simplemente, dar un paso
al costado. La vida continua y hay que seguir adelante. No vale
la pena llorar por alguien. De resto, Dios me los bendiga y
hasta otra entrega.
Suggest correction
Give kudos to tab author, rate the tab!
1 2 3 4 5
comments
print report bad tab
guest
You may want to rate the tab now too:
select rating
Wanna post a correction for this tab? Suggest correction