Oops, an error
Loading. Please wait.

Las Caraqueñas Bass

by Guaco
103 views 1 this week
no commentswrite comment
1 2 3 4 5
2 more votes to show rating
add to favorites
×
Save as Personal and add changes to this tab that will be seen only by you. Learn more ›
×
You can save this tab as Personal to edit and correct it or add notes. All changes will be seen only by you. Learn more »
save as personal
new!
launch autoscroll
font size
0
reset
guitar tuner
Autoscroll
slow
fast
+/-
esc
set tempo
stop
Hoy es el último día del año y quisiera
despedirlo con este superclásico de la salsa,
al estilo único de Guaco

Intro:

D ----------------------------------------|
A ---2-3--------3-4-5----3----------------|
E -3---------5---------3----------5---5---|
B --------5-----------------5-5-----5-----|

Versos

"No sé que tienen las chicas lindas. Que de Caracas
Con su caminar tan sabrosón, que a todo el mundo
arrebata"

D -------------------------------|
A -------------------------------|
E ---5---5-------7---7---7---7---|
B -5---5----5--5---5---5---5-----|

"Cuando las miro al pasar, el cuerpo se me estremece"

D -------------------------------------------|
A ------------------------5-7-5--------------|
E --5-----5-----5------5--------5--------0---|
B ----5-5---5-5----5-5-------------3-3-4-----|

"No puedo hablar. Sólo mirar. Pues mudo quedé.
Y si las miro otra vez, ¡¡¡me moriré!!!

D -----------------------------------------------|
A -5-5------7------------------------------------|
E ------3-5------7--5---5----3-5--3-5---7---5-5--|
B -------------5------5----3----------5---5------|

Interludio (parte hablada: y es que tienen un swing...
¡¡¡MUCHACHO!!!")

D --------------------------------------------------|
A -----2-3---------------5-6-7----------------------|
E -3-3----------7--5---5------------8-----7--5---5--|
B ----------6-5------5----------8-8---6-5------5----|

Se vuelven a tocar las partes del verso. Luego viene..

"Cómo caminan..."

D --------|
A --------|
E -5-7-8--|
B --------|

"... Las caraqueñas..."/Coro (2-4 veces)

D -------------------------------------------------------------|
A ---5---5---------------5---5--------------------5---5--------|
E -5---5---8-7-7----7------5----8-7--7----7-5-------5----8-7---|
B ----------------5---5-----------------5------5---------------|

Solo de metales (2 veces)

D ------------------------------------------------|
A -----------------5---5--------------------------|
E -7-7---7---7-5-----5---8-7-7---7--5---5---------|
B ---------5-----5-------------5------5---7-7--5--|

Volver a tocar el coro. Luego tocar:

D -------------|
A -------------|
E -5-7-8-------|
B --------6-5--|

D -------------------------------|
A -5-7-5-7-7----------------7----|
E ----------------5-------7---5--| (tocar 2-4 veces)
B ------------5-5----6-5---------|

Se vuelve a tocar el coro por 3 veces. Después viene esto:

Final:

D ---------------------------------------------|
A ---------------------------------------------|
E -5---5------5---5-------7---7----5-------5---|
B ---5---5--3---3----3--5---5----5---6-5-5-----|

Esta es toda la canción. Primero tienen que transportar el
bajo, en afinar la cuerda E a B, y luego seguir el
proceso de afinación. La pieza está bien completa, pero tiene
sus detallitos. No es tan difícil, pero hay que oirla bien
y seguirle el ritmo. Los adornos se los dejo. Un abrazo
a todos, feliz año nuevo y hasta otra oportunidad.
Cualquier cosa que me quieran comunicar, escriban a
viscabarca_99@
Suggest correction
Give kudos to tab author, rate the tab!
1 2 3 4 5
comments
print report bad tab
guest
Wanna post a correction for this tab? Suggest correction