Oops, an error
Loading. Please wait.

Cien Años Chords

29 views 1 this week
no commentswrite comment
1 2 3 4 5
3 more votes to show rating
add to favorites
×
Save as Personal and add changes to this tab that will be seen only by you. Learn more ›
×
You can save this tab as Personal to edit and correct it or add notes. All changes will be seen only by you. Learn more »
save as personal
new!
launch autoscroll
font size
0
reset
transpose
0
reset
simplify chords
display chords
guitar tuner
Autoscroll
slow
fast
+/-
esc
set tempo
stop
Strumming
There is no strumming pattern for this song yet. and get +5 IQ
ESTE ES EL INTRO UTILIZADO

e---3-3-3-3-3-3-3-1-0-0-/-2-0--------------------/
B---3-3-3-3-3-3-3-----1-/-----3-2-0--------------/
G-4---------------------/-----------2-0----------/
D-----------------------/---------------0/2-0--0-/
A---------------------3-/---------------------3--/
E-----------------------/------------------------/

Emaj7          F#m7
  Pasaste a mi lado
B7                Emaj7
  con gran indiferencia
      C#m      F#m7
  tus ojos nisiquiera
B7                Emaj7
  voltearon hacia mi.

                    F#m7
  Te vi sin que me vieras
B7                    Emaj7
  te hable sin que me oyeras
 C#m          F#m7
  y toda tu amargura
       B7            Emaj7
  se ahogo dentro de mi.

      E7             A
  Me duele hasta la vida
     E7            A
  saber que me olvidaste
     F#             B7
  pensar que ni desprecios
    F#          B7
  merezca yo de ti.

                F#m7
  Y sin embargo sigues
B7              Emaj7
  unido a mi existencia
  C#m            F#m7
  y si vivo cien años
       B7             Emaj7
  cien años pienso en ti.


e---3-3-3-3-3-3-3-1-0-0-/-2-0--------------------/
B---3-3-3-3-3-3-3-----1-/-----3-2-0--------------/
G-4---------------------/-----------2-0----------/
D-----------------------/---------------0/2-0--0-/
A---------------------3-/---------------------3--/
E-----------------------/------------------------/


Emaj7          F#m7
  Pasaste a mi lado
B7                EMj7
  con gran indiferencia
      C#m      F#m7
  tus ojos nisiquiera
B7                Emaj7
  voltearon hacia mi.

                    F#m7
  Te vi sin que me vieras
B7                    Emaj7
  te hable sin que me oyeras
 C#m          F#m7
  y toda tu amargura
       B7            Emaj7
  se ahogo dentro de mi.

      E7             A
  Me duele hasta la vida
     E7            A
  saber que me olvidaste
     F#             B7
  pensar que ni desprecios
    F#          B7
  merezca yo de ti.

                F#m7
  Y sin embargo sigues
B7              Emaj7
  unido a mi existencia
  C#m            F#m7
  y si vivo cien años
       B7             Emaj7
  cien años pienso en ti.

Alguna cosa conectate con: poncomeza2@
Suggest correction
Give kudos to tab author, rate the tab!
1 2 3 4 5
comments
print report bad tab
guest
Wanna post a correction for this tab? Suggest correction