Oops, an error
Loading. Please wait.

Ay Carmela Tab

696 views 9 this week
no commentswrite comment
1 2 3 4 5
3 more votes to show rating
add to favorites
launch autoscroll
font size
0
reset
how to read this tab
guitar tuner
×
Best way to learn
"Ay Carmela"
Autoscroll
slow
fast
+/-
esc
set tempo
stop
Hola ¡

El intro de esta rola suena chingón.

e|-7----------9--------9-11----------9-------9--|      
a|----------------------------------------------|    
d|----------------------------------------------|
g|----------------------------------------------|
b|---0---0-------0---0-------0----0----0---0----|
e|-----0-----------0-----------0---------0------|

se repite muchas veces.

los acordes son: 

      E    A    B   E
 e|---7----5----7---7 
 a|---7----7----9---7
 d|---9----7----9---9
 g|---9----6----8---9
 b|---9----5----7---9
 e|---7----5----7---7

se usan así:
                             *         *
e|------------5-5-5-x-x7-7-7--7-7-7-7-7-|
a|---7-7-7-x-x7-7-7-x-x9-9-9--7-7-7-7-7-|
d|---9-9-9-x-x7-7-7-x-x9-9-9--9-9-9-9-9-|
g|---9-9-9-x-x----------------9-9-9-9-9-|
b|----------------------------9-9-9-9-9-|
e|----------------------------9-7-9-7-9-|
                              \         /
                                algo así

  (*)significa un movimiento muy rápido           
de dedos en la cuerda e (#1)                      
                                        
disfrútenla.
Suggest correction
Give kudos to tab author, rate the tab!
1 2 3 4 5
comments
print report bad tab
guest
You may want to rate the tab now too:
select rating
Wanna post a correction for this tab? Suggest correction