Oops, an error
Loading. Please wait.

En El Medio Del Camino Tab

16 views 1 this week
no commentswrite comment
1 2 3 4 5
3 more votes to show rating
add to favorites
launch autoscroll
font size
0
reset
how to read this tab
guitar tuner
Autoscroll
slow
fast
+/-
esc
set tempo
stop
Help us to improve Ultimate-Guitar.com Take our survey!
×
Guitarra 1:

Intro: C#m, A, E, G#m, C#m, B, Acej

Guitarra 2: (Cuando empieza el G#m empieza este punteo).

G:--------8-------8/9----9/11---9--8---9-8---7-8-7--|
D:--6---8---6---8-----------------------------------|

          E
Lo empecé a hacer este viernes
     C#m
Pero antes me derrumbé
      A
Lo dejé pasar al lunes y 
    E
desnudo me encontré
      A
Si pudieras concienciarte 
         C#m                Acej.
sin que haya en medio un papel 
                                 E
solo quiero la amistad de esa mujer
 
           E
Cuando al fin pase la semana 
          C#m
cuando el cielo se vuelva gris
          A
cuando el tiempo te de la espalda 
          E
porque intentas ser feliz
         A
no he podido olvidarte
     C#m         Acej.            Guitarra 2: Acej.
necesito continuar
                           E
pero el amor no se merece más


Guitarra 1 y 2:

      B
En el medio del camino 
         A          E
cuando pierda la razón
         B 
dame un poco de cariño
        A             E
no quiero contar tu amor

       A
No quedan excusas
      E   
hay que admitirlo
    A
voy a marcharme

Guitarra 1:
C#m, A, E, G#m, C#m, B, Acej

Guitarra 2:
Sin distorsión:
G:-----9-7-9------9-7-9-|
D:-7-9--------7-9-------|

Con distorsión:
G:--------8-------8/9----9/11---9--8---9-8---7-8-7--7/18-|
D:--6---8---6---8----------------------------------------|

Guitarra 1:
           E
Cuando al fin pase la semana 
           C#m
cuando el cielo se vuelva gris

Guitarra 2:
          esto se
         se puede 
        hacer con
        un ligado
           | | |
e:-------5-7-8-7-5----|
B:---5-7-----------7--|      Rifft
G:-6------------------|

Guitarra 1:
            A
porque el tiempo me da la espalda
       E  
cuando ya no estés aquí
         A
no he podido olvidarte 
     C#m        Acej.            Guitarra 2: Acej.
necesito continuar
                           E
pero el amor no se merece más

        B
En el medio del camino
         A          E 
cuando pierda la razón
         B
dame un poco de cariño
        A             E
no quiero contar tu amor
  A
No quedan excusas
     E
Hay que admitirlo
    A
Tengo que ser yo 

Guitarra 1:
(B, A, E) * 4            ----esto A LA vez
                        |
                        |
Guitarra 2:

E:-----5-7-8-8-7/9-7---------------7-9-(9-12-11)*6[ligados]
B:---5-7-------------9-7-9-7---7-9-------------------------
G:5-7-----------------------9-9----------------------------

E:-12/15-15-15-14-12-(12-15-14)*3[ligados]---
B:-------------------------------------------
G:-------------------------------------------

E:-0-17-19-0-17-19-0-17-19-0-17-19-19/21---21-21-19------
B:-------------------------------------------------21-19-
G:-------------------------------------------------------

E:-----------------------------------------------------
B:-21-19-----------------------------------------------
G:-------21-19*10-18*10-16*10-14-13*10-11-9*10/7*5/5*5-


(muy muy rápido a partir de aquí)        ligado
E:--------5-7---7-9---9-11-12------------|--|--|------|
B:-----5-7--------------------9-11-12---(9-11-12)*2---|
G:-5-7--------------------------------10--------------|

        B
En el medio del camino    \
         A          E     |
cuando pierda la razón    |
         B              | *3
dame un poco de cariño    |
        A             E   |
no quiero contar tu amor  /
Suggest correction
Give kudos to tab author, rate the tab!
1 2 3 4 5
comments
print report bad tab
guest
You may want to rate the tab now too:
select rating
Wanna post a correction for this tab? Suggest correction