Oops, an error
Loading. Please wait.

En El Medio Del Camino Bass Tab

18 views 1 this week
no commentswrite comment
1 2 3 4 5
3 more votes to show rating
add to favorites
launch autoscroll
font size
0
reset
guitar tuner
×
Best way to learn
"En El Medio Del Camino"
Autoscroll
slow
fast
+/-
esc
set tempo
stop
 Pio!

Intro:

En la intro la guitarra hace estas notas: C#m, A, E, G#m, C#m, B, A.
Bueno, pues el bajo entra en el G#m.

   G---------------|
   D---------------|
   A-----4--2------|
   E---4------5----|

Verso:

Los versos son todos iguales, lo único que cambia es el ritmo, pero 
escuchando la canción varias veces sale. 
Yo voy a poner el ritmo del primer verso. 

   G------------------------------------------------------------------------------------
   D------------------------------------------------------------------------------------
   A---7---7--7-----7---7--7------------------------------------------------7---7--7----
   E---------------------------------4---4--4-----4---4--4-----5---5--5-----------------

   G----------------------------------------------------------------------------------
   D----------------------------------------------------------------------------------
   A------------------------------------------------7---7--7-----4-----2--------------
   E---4---4--4-----4---4--4------5---5--5--------------------------------5---5--5----

   G-----------------------------------------------------------|
   D-----------------------------------------------------------|
   A--------------------------------7---7--7---S---19--19------|
   E---5---5--5-----5---5--5-----------------------------------|

Estribillo:

   G---------------------------------------------------------------|
   D---------------------------------------------------------------|
   A---2--2--2--2--2--2--2--2-------------------7--7--7--7---------|
   E----------------------------------5--5--5--5-------------------|

Puente:

El de después del estribillo:

   G---------------------|
   D---------------------|
   A----------7----------|
   E---5------------5----|

En los punteados de guitarra, es lo mismo que en el estribillo.

Hay un puente que hace lo mismo que en la intro, pues el bajo 
hace lo mismo que la guitarra, las notas son las mismas que 
en la intro...

Para dudas enviadme un mail a cvm85@  ó  algoperdido@
Suggest correction
Give kudos to tab author, rate the tab!
1 2 3 4 5
comments
print report bad tab
guest
You may want to rate the tab now too:
select rating
Wanna post a correction for this tab? Suggest correction