Oops, an error
Loading. Please wait.

Noche En Vela Tab

54 views 1 this week
no commentswrite comment
1 2 3 4 5
3 more votes to show rating
add to favorites
launch autoscroll
font size
0
reset
how to read this tab
guitar tuner
Autoscroll
slow
fast
+/-
esc
set tempo
stop
Help us to improve Ultimate-Guitar.com Take our survey!
×
Aqui os dejo una correción de las versiones y esta vez con el intro para
que la disfruteis.
Muchas "noches en vela" he pasado por ti, la Dama más bella!


Intro:
    Cm7                         Dm7                 D#

||--------3-5----------3h5p3---------5-7-----8---------------------6-------
||------4-----4---4----------------6-------6--------8-----8----6-----6-----
||----3---------3----------------5-------5----------8-----8------------8---
||-------------------------------------------------------------------------
||--3--------------------------5--------------------6--6-----6----6--------
||-------------------------------------------------------------------------


Gm     F                A#
Cuanto tiempo he de esperar,

       Cm7           Dm7
para tenerte bajo la luna,

       Cm7                   **
besar tu piel que es de aceituna.


(**Aki se puede hacer si kereis esto con la cejilla puesta)

||---------------
||---------------
||---------------
||--0h2--0-------
||---------3-2---
||---------------


Gm      F        A#
Cuantos años pasarán,

           Cm7               Dm7
sin que te acune como a un tesoro,

          D#
peinar tu pelo que es de oro.


A#      F               Gm
Me he pasao la noche en vela,

D*             Gm             D*           Gm
como la vez primera en que te vine yo a rondar

A#        F           Gm
No quedan luces en el puerto,

D*              Gm           D*             Gm
así que estaré atento por si confundiste el mar.


(Se repite el intro)


Gm    F             A#
Dices que es para mejor,

          Cm7           Dm7
que la distancia es el olvido

       Cm7
yo solo quiero estar contigo.

Gm      F           A#
No me importará esperar,

         Cm7               Dm7
por tu recuerdo vuelan gaviotas,

           D#
guitarras, niños, amapolas.


A#      F               Gm
Me he pasao la noche en vela,

D*             Gm             D*           Gm
como la vez primera en que te vine yo a rondar

A#        F           Gm
No quedan luces en el puerto,

D*              Gm           D*             Gm
así que estaré atento por si confundiste el mar. (bis)


     Gm        F       A#       Cm7      Dm7      D#       D*
    --3--    --1--    --1--    --3--    --5--    --6--    --3--
    --3--    --1--    --3--    --4--    --6--    --8--    --4--
    --3--    --2--    --3--    --3--    --5--    --8--    --3--
    --5--    --3--    --3--    --5--    --7--    --8--    --1--
    --5--    --3--    --1--    --3--    --5--    --6--    --1--
    --3--    --1--    --1--    --3--    --5--    --6--    --1--

Trukito: Poner la cejilla en el traste 1 y asi será mas facil de
hacer el D* que pasaria a ser un D normal, el A# pasaria a ser un A,
y el F pasaría a ser un E. Los otros acordes se tocan normales en los
trastes que he puesto anteriormente.


Alguna duda o comentario -->Jackson,   Jackanja@
Suggest correction
Give kudos to tab author, rate the tab!
1 2 3 4 5
comments
print report bad tab
guest
You may want to rate the tab now too:
select rating
Wanna post a correction for this tab? Suggest correction