Oops, an error
Loading. Please wait.

Extrañándote Tab

14 views 1 this week
no commentswrite comment
1 2 3 4 5
3 more votes to show rating
add to favorites
launch autoscroll
font size
0
reset
how to read this tab
guitar tuner
×
Best way to learn
"Extrañándote"
Autoscroll
slow
fast
+/-
esc
set tempo
stop
Hola,soy de Catamarca y Esta es la primera vez que subo una cancion,
espero que les guste. Me parece que esta version esta un poquito mas
completa....

Intro:
e---------------------------------------------------------------
B-----12-----------------------------12-------------------------
G-------14-12-11----9----9-11-12--14----12----------------------
D-12-------------12---------------------------------------------
A---------------------------------------------------------------
E---------------------------------------------------------------

e---------------------------------------------------------------
B-12------------------------------------------------------------
G---14-12-11----9----9-11-12--14-11----9-11-12--14-12-----------
D------------12---------------------------------------12--------
A---------------------------------------------------------------
E---------------------------------------------------------------


e---------------10----------------------------------------------
B---------12----------12------12--------------------------------
G----12------12----12-------------------------------------------
D-12---12------------------12-----------------------------------
A---------------------------------------------------------------
E---------------------------------------------------------------


SOL SIm        LAm              RE
Pensare una historia entre los dos
       MIm      LAm         RE7
Inventare tu mañana junto a mi.
SOL SIm        LAm           RE
Soñare que tu sueñas a mi lado.
       MIm        LAm             RE7
Y al final me despierto y tu no estas
     DO            RE
Y mi vida sigue igual
      DO   RE7    SOL
Extrañando en soledad.

Tratare de calmar este dolor
Y no podre contener mi corazon.
Buscare en el fondo de mi alma
una razon, que me ayude a comprender
lo que puede suceder
Si te tengo que perder.

>>Estribillo

             DO                  SOL
Extraño el dulce mirar de tu ilusion
       LAm         RE7
Tu ternura, tu pasion,
       LAm         RE7
La melodia de tu voz.
                SOL                SIm
Si el tiempo hubiese corrido a mi favor,
        DO           RE
tu estarias junto a mi
     DO              RE
Escribiendo una cancion
       DO  RE7  SOL
En el libro del amor

>>Repite Intro

Guardare el secreto de este amor
en una estrella, que encierre nuestra pasion.
Trazare un camino entre los dos
y siento que cada recuerdo de tu amor
es una lagrima de amor
dentro de mi corazon

>>Repite Estribillo

        LAm           RE7
Cada recuerdo de tu adios
        LAm         RE7
es una lagrima de amor
       DO  RE     SOL
dentro de mi corazon.


Cualquier duda, comentario, escriban a mi mail =)

Esta cancion se la dedico a mi Hermano Tony, que le encanta este tema. =)

Saludos!!

::CATAMARCA-ARGENTINA::
Suggest correction
Give kudos to tab author, rate the tab!
1 2 3 4 5
comments
print report bad tab
guest
You may want to rate the tab now too:
select rating
Wanna post a correction for this tab? Suggest correction