Oops, an error
Loading. Please wait.

Tutu Campo El Último Cantor Tab

26 views 1 this week
no commentswrite comment
1 2 3 4 5
3 more votes to show rating
add to favorites
×
Save as Personal and add changes to this tab that will be seen only by you. Learn more ›
×
You can save this tab as Personal to edit and correct it or add notes. All changes will be seen only by you. Learn more »
save as personal
new!
launch autoscroll
font size
0
reset
how to read this tab
guitar tuner
Autoscroll
slow
fast
+/-
esc
set tempo
stop
Hola soy Joaquin.. otra transcripcion.
 espero q les guste.
en honor al GRAN "TOMAS TUTU CAMPOS Y
LOS CANTORES DEL ALBA"

Intro: LAm - SOL

El Grito de la intro esta en entos acordes,
(para afinar la voz, si quieren)
LA SI DO    RE DO   SI DO SI  LA   SOL MI SOL LA


Y puntiado en la guitarra qdaria asi..
E -5-----7---8-----10---8-----7-8-7---5----3-------3--5
B ---------------------------------------------5-------
  LA     SI  DO    RE   DO  SI DO SI LA   SOL MI SOL LA


Am       (E7)         Am
Callada guitarra con duelo
 6)-5-4-2-0---(es una escala, es opcional)
 (F)         (B7)      E7
Poncho rojo, negro, crespón
E7                  F
Salta no tiene consuelo
                    (Dm)  (F)       E7
Se ha ido hasta el cielo Tutú su cantor
E7                  F
salta no tiene consuelo
                   (Dm)  (E7)     Am
se ha ido hasta el cielo tutu su cantor

Su canto fue serenatero
Dulces valcesitos de amor
Yo soy el aventurero
Cantaba a su pueblo Tomás el cantor
yo soy el aventurero
cantaba a su pueblo tomas el cantor

Puente:(F) (F#) (SOL)
 SOL                 C
Hoy Los Cantores del Alba
(F)     (B7)        E7
Están cantándole a Dios
           E7              F
Horacio Aguirre y Gilberto Vaca
   (Dm)     (F)        E7
Acompaña Javier Pantaleón
E7                        F
Que lindo suena Carpas Salteñas
       (Dm)   (E7)     LAm
Tutú campos faltaba tu voz

Punteo:
La 2º Guitarra acompaña con estos acordes en
Ritmo de Vals:
REm (x6)- LAm - [SOL_FA_MI7]* - MI7 - LAm

* = es un puente: se rasgue 1 vez cada acorde.
() = las notas entre () tambien se rasguean una sola vez.
     o dos- escuchando la cancion van a entender..
     es un rasgueo incompleto.

-17--13-12-12-10-10-12-12-13-13-15-15-13-13---
----------------------------------------------
-17--14-12-12-10-10-12-12-14-14-15-15-14-14---
----------------------------------------------
----------------------------------------------
----------------------------------------------

-13-15--15-15-15-10-10/12-10-10-8-8-----------
----------------------------------------------
-14-15-15--15-15-10-10/12-10-10-9-9-----------
----------------------------------------------
----------------------------------------------
----------------------------------------------

-7-8-7-8--12-12-11-12-11-12--8/10-10--8--8-7-7
----------13-13-12-13-12-13-10/12-12-10-10-8-8
-8-9-8-9--------------------------------------
----------------------------------------------
----------------------------------------------
----------------------------------------------

-12-13-12-10-12-13-12-10----------------------
------------------------13-12-10-9------------
----------------------------------10-9-7------
----------------------------------------10-9-7
----------------------------------------------
----------------------------------------------

-12--11--10--10-
-13--12--12---8-
----------------
----------------   esto lo hace al final
----------------   y engancha el ritmo de zamba
----------------


Que triste está Salta la linda
La esquina quedó sin cantor
Llora guitarra afligida
Tutú en su partida no te dijo adiós
Llora guitarra afligida
Tutú en su partida no te dijo adiós

Viajero grillo peregrino
Te cansaste de tanto andar
Duerme tranquilo tu sueño
Jamás los salteños te habrán de olvidar
Duerme tranquilo tu sueño
Jamás los salteños te habrán de olvidar

Puente:(F) (F#) (SOL)
 SOL                 C
Hoy Los Cantores del Alba
(F)     (B7)        E7
Están cantándole a Dios
           E7              F
Horacio Aguirre y Gilberto Vaca
   Dm     (F)        E7
Acompaña Javier Pantaleón
E7                        F
Que lindo suena Carpas Salteñas
       (Dm)   (E7)     LAm
Tutú campos faltaba tu voz

* = es un puente: se rasgue 1 vez cada acorde.
() = las notas entre () tambien se rasguean una sola vez.
     o dos- escuchando la cancion van a entender..
     es un rasgueo incompleto.

By Marote. Espero que les Guste. Mi mail Marote_93cj@
A mi parecer esta bastante bien..
POR FAVOR VOTENLA
Suggest correction
Give kudos to tab author, rate the tab!
1 2 3 4 5
comments
print report bad tab
guest
Wanna post a correction for this tab? Suggest correction