Oops, an error
Loading. Please wait.

Días De Amar Tab

159 views 1 this week
no commentswrite comment
1 2 3 4 5
3 more votes to show rating
add to favorites
launch autoscroll
font size
0
reset
how to read this tab
guitar tuner
×
Best way to learn
"Días De Amar"
Autoscroll
slow
fast
+/-
esc
set tempo
stop
Observaciones: El intro es algo lento(no tanto)escuchenlo
con atención y  tablatura está 100% correcta.
Cualquier duda o recomendación:Jasle23@
Tab by Jason Leiva, 2013.
**Nota: Afinación Eb
Leyenda:
h=hammer
x=Nota muerta(No se toca)

Acordes raros:
   Am7 Bm7 Cmaj9
 e|-3-|-5-|-x-|
 B|-1-|-3-|-3-|
 G|-2-|-2-|-0-|
 D|-2-|-4-|-2-|
 A|-x-|-2-|-3-|
 E|-x-|-2-|-x-|


Intro x2
|-----------------------------|-----------------|
|---------0-------------------|---------0-------|
|-0---0---0---0-0-0-0h2h4h2h0-|-0---0---0---0-0-|
|---0---0---0-----0-----------|---0---0---0-----|
|-----------------------------|-----------------|
|-3-------------3---3---------|-3-------------3-|

|-----------------3------------3---3---3-|---3---3---|
|---------------1----1-------1-----1---1-|---1---1---|
|-0-0h2h4h2h0-2--------2---2-----2---2---|-2---2---2-|
|-0----------------------2---------------|-----------|
|-------------0--------------------------|-----------|
|---3------------------------------------|-----------|

G
Vienen ya días de amar la casa que habitas
                       Am                      Am7
Dias de amar la tierra vegetal, flor y animal
G
Vienen ya rios con aguas sin envenenar
                             Am                   Am7
Agua que beben los que tienen sed igual que usted.

G
Vienen ya bosques pulmones de la gran ciudad,
                             Am              Am7
Selvas que aroman en la oscuridad, noches de paz.
                           Cmaj9           Am
Que hacia falta a la humanidad no es natural


G                 Bm
Que en el planeta tanto ande mal
C             Bm7             Am
Que el hombre agreda al hombre
C             Bm7       Am        C     Am
Que el hombre agreda al animal al vegetal
C
Ehhhheehhhh


G
Se oyen ya loras gritando a gran velocidad,
                          Am                   Am7
Niños jugando con felicidad, vuelvo a su edad
G
Pasan ya cosas que alegran a la humanidad,
                           Am             Am7
Aires que huelen como a navidad en igualdad.
                     Cmaj9                 Am
Que hacia falta a la humanidad no es natural


G                 Bm
Que en el planeta tanto ande mal
C             Bm7             Am
Que el hombre agreda al hombre
C             Bm7       Am        C     Am
Que el hombre agreda al animal al vegetal
C
Ehhhheehhhh


G
Vienen ya dias de amar el mundo que habitas,
                            Am                  Am7
Dias de amar la tierra vegetal, flor y animal.


G
heeyeeeye, heyeeey eyeyey hey heeeeeeeeeey
                            Am             Am7
heeeeeeeeey heeeeeeeeeeeeeey heeeeeeeeeeey

G
Vienen ya dias de amar el mundo que habitas,
                             Am                Am7
Dias de amar la tierra vegetal, flor y animal...

G
heeyeeeye, heyeeey eyeyey hey heeeeeeeeeey
                            Am             Am7...G
heeeeeeeeey heeeeeeeeeeeeeey heeeeeeeeeeeeeeeeeeey
Suggest correction
Give kudos to tab author, rate the tab!
1 2 3 4 5
comments
print report bad tab
guest
You may want to rate the tab now too:
select rating
Wanna post a correction for this tab? Suggest correction