Oops, an error
Loading. Please wait.

Levántame Tab

31 views 1 this week
no commentswrite comment
1 2 3 4 5
3 more votes to show rating
add to favorites
launch autoscroll
font size
0
reset
how to read this tab
guitar tuner
×
Best way to learn
"Levántame"
Autoscroll
slow
fast
+/-
esc
set tempo
stop
Muy bien?aca va

Primero que nada, AFINAR LA GUITARRA MEDIO TONO ABAJO

Desde el comienzo lleva 2 guitarras

Estos son armonicos naturales.
El del 5 traste lo puedes reemplazar
por la misma cuerda en el traste 12. El otro esta bien.
Van con delay. Obvio cada nota se repite.
No toca la nota una sola vez!! (aunque es medio obvio)
---------------------------------------
---------------------------------------
-------12------------------------------
---------------------------------------
--5------------------------------------
---------------------------------------

Los acordes de la canciones son estos:

A9              C9
-0--------------0-----------------------------
-0--------------3-----------------------------
-2--------------0-----------------------------
-2--------------2-----------------------------
-0--------------3-----------------------------
----------------------------------------------

La parte que cambia va esto
  G           G/F
--3---3-------3---3---------------------------
----3---3-------3---3-------------------------
-------------------------repite lo mismo------
----------------------------------------------
----------------------------------------------
3-----------1---------------------------------

Cuando dice ?levantame? (hay 2 guitarras) va esto, que es medio complicado

1ra guitarra:

-3------3------3-------3----------------------
---1------1------1--------1-------------------
----------------------------------------------
---------------------0------------------------
0-----2------3--------------------------------
----------------------------------------------

La otra guitarra solea el bajo, o sea:

----------------------------------------------
----------------------------------------------
-2vv--4vv--5vv--7vv---------------------------
----------------------------------------------
----------------------------------------------
----------------------------------------------

Ahora lo mejor, el solo. Esta bien. A escuchar

----------------------------------------------
----------------------------------------------
2/(4)vvv-2-----2/(4)-4/(5)-4/(5)--------------
----------------------------------------------
----------------------------------------------
----------------------------------------------

----------------------------------------------
----------------------------------------------
12---9-7/(4)vvv(buen vibato)---2/(4)/(2)-------
----------------------------------------------
----------------------------------------------
----------------------------------------------

----------------------------------------------
----------------------------------------------
2/(12)-12-12-9-12/(14)-14-14-14-14------------
----------------------------------------------
----------------------------------------------
----------------------------------------------
Empieza a cantar y se escucha el fin del solo
----------------------------------------------
----------------------------------------------
2/(4)-4/(5)-2/(4)-4/(5)-----------------------
----------------------------------------------
----------------------------------------------
----------------------------------------------

Disfutenla. Cualquier cosa me escriben.
Suggest correction
Give kudos to tab author, rate the tab!
1 2 3 4 5
comments
print report bad tab
guest
You may want to rate the tab now too:
select rating
Wanna post a correction for this tab? Suggest correction