Oops, an error
Loading. Please wait.

Nunca Te Diré Adios Tab

118 views 1 this week
no commentswrite comment
1 2 3 4 5
3 more votes to show rating
add to favorites
launch autoscroll
font size
0
reset
how to read this tab
guitar tuner
Autoscroll
slow
fast
+/-
esc
set tempo
stop
Help us to improve Ultimate-Guitar.com Take our survey!
×
donde esta asi - - es solo un rasguido

G                      D
 Se que no ah sido fácil
C                            G -C-G
 Cuantas veces te eh visto caer
                             D
 Mas en las lluvias o tormentas
 C                      -G-
 Mi amor por ti nunca seso

CORO:

Estos son los arpegio para
entrar en el coro(remplaza G y Em)


  G      Em        D??
e|------|---------|
B|------|----0----|
G|----0-|---0-----|
D|---0--|--2------|
A|--2---|-2----2--|
E|-3----|---------|


G      Em         D
 Mas si pudieras ver
        C            G
 Cuanto yo te amo a ti
   Em     D        -C-
 Serias libre pues yo

 Te quiero así


G                  D
 Ves pasar los días
                C
 Y los restos de
                            G
 Cada uno de esos sueños que
          -C-G
 Te mostré
                      D
 Mas toma lo restante
                             C
 Hay sueños nuevos solo para ti

 Ya no veas atrás
                 -G-
 Mas solo veme a mí

CORO:

  G      Em        D??
e|------|---------|
B|------|----0----|
G|----0-|---0-----|
D|---0--|--2------|
A|--2---|-2----2--|
E|-3----|---------|


G      Em         D
 Mas si pudieras ver
        C            G
 Cuanto yo te amo a ti
   Em    D         C
 Serias libre pues yo
            D
 Te quiero así
      G           D     C
 Y yo nunca te diré adiós
      G           Am    D
 Pues tienes todo mi amor
       G           D
 De tu lado no me iré
            C          Em
 Yo siempre te perdonare
     -Am-        -C-    D
 Y yo nunca te diré adiós

Am
  Y yo se que el amor
                 Em
 Y la vida es fría
G                     D
 Cuando todo lo ves gris
Am
  Mas tu puedes darme a mi
        Em -D-
 tu carga
                  -C-
 mi hijo di por ti

 y no te voy a abandonar
 no no

solo:

  G                           D
e|-----------------------------8-10/12-10-8-8/108
B|---8-10-11-10-11-11/13-10-11-------------------
G|-10--------------------------------------------
D|-----------------------------------------------
A|-----------------------------------------------
E|-----------------------------------------------

  C                           G
e|--12/13-12-10-------------------------------
B|--------------13-15-12----------------------
G|-----------------------11-13-11/1311--------
D|--------------------------------------9/119-
A|--------------------------------------------
E|--------------------------------------------

esta parte no se oye bien pero pueden sacarla
como les paresca

e|----------------------
B|----------------------
G|----------------------
D|---12h11-9h11h12-11h9-
A|-11-------------------
E|----------------------

   G            D         C             -G-
e|-15/17-15-13--6/8-10-8--13-15-13-8/10----------
B|-------------------------------------13p9-10p6-
G|-----------------------------------------------
D|-----------------------------------------------
A|-----------------------------------------------
E|-----------------------------------------------

CORO:

  G      Em        D??
e|------|---------|
B|------|----0----|
G|----0-|---0-----|
D|---0--|--2------|
A|--2---|-2----2--|
E|-3----|---------|


G      Em         D
 Mas si pudieras ver
        C            G
 Cuanto yo te amo a ti
   Em    D         C
 Serias libre pues yo
             D
 Te quiero así
      G           D     C
 Y yo nunca te diré adiós
      G           Am    D
 Pues tienes todo mi amor
       G           D
 De tu lado no me iré
            C          Em
 Yo siempre te perdonare
     -Am-        -C-    D
 Y yo nunca te diré adiós
(Después de un rasguito el arpegio)

  Am
e|-----0---0--||
B|---1---1----||
G|-2----------||
D|------------||
A|------------||
E|------------||

      -Am-
 Y yo nunca????


  C
e|---------0--||
B|-------1----||
G|-----0------||
D|---2--------||
A|-3----------||
E|------------||

      -C-
 te diré????

     -D-
 Adiós???.

 PUENTE:    G - F - C

nunca te dire adios
 G          F       C
(Nunca te diré adiós)
Nunca te dire adios
 G          F       C
(Nunca te diré adiós)
Nunca te dire adios
 G          F       C
(Nunca te diré adiós)
Noonunca te dire adios
 G          F       C
(Nunca te diré adiós)..

ESTODO AH..TIENEN QUE BAJAR 1/2TONO
SIQUIEREN QUE SUENE ORIGINALMENTE EN F# PERO IGUAL SUENA ASI
BIEN ....ES DIFICIL ALCANSAR LA VOS
CUALQUIER COSA A MI CORREO
Fran_zhok@
Suggest correction
Give kudos to tab author, rate the tab!
1 2 3 4 5
comments
print report bad tab
guest
You may want to rate the tab now too:
select rating
Wanna post a correction for this tab? Suggest correction