Oops, an error
Loading. Please wait.

Blues De La Desolación Bass

23 views 1 this week
no commentswrite comment
1 2 3 4 5
3 more votes to show rating
add to favorites
×
Save as Personal and add changes to this tab that will be seen only by you. Learn more ›
×
You can save this tab as Personal to edit and correct it or add notes. All changes will be seen only by you. Learn more »
save as personal
new!
launch autoscroll
font size
0
reset
guitar tuner
Autoscroll
slow
fast
+/-
esc
set tempo
stop
Estrofa
1/----------------------------------------------------
2/--5--4--2---------0-----5--4--2---------0--2--------
3/-------------3----------------------3---------2--0--
4/----------------------------------------------------

Estribillo
1/----------------------------------------------------
2/----------------0-2-------------------------0-------
3/--------------2-------0-----0----(2)3-2-0-----------
4/-3333-2222-0------------0-3---------------3---------


Se repite 3 veces esto
Cuando termina el 3er  estribillo empieza esto


1/------5--5---------------7--7----
2/-----5--5---------------7--7-----
3/-3------------------5------------
4/---------------------------------

Se repite 4 veces,,, la cancion termina sin bajo
Suggest correction
Give kudos to tab author, rate the tab!
1 2 3 4 5
comments
print report bad tab
guest
Wanna post a correction for this tab? Suggest correction