Oops, an error
Loading. Please wait.

Blues De La Desolación Tab

5 views 1 this week
no commentswrite comment
1 2 3 4 5
3 more votes to show rating
add to favorites
launch autoscroll
font size
0
reset
how to read this tab
guitar tuner
Autoscroll
slow
fast
+/-
esc
set tempo
stop
Aqui el solo del tema:

|1|---------------------------------------
|2|---------------------------------------
|3|---------------------------------------
|4|---------------------------------------
|5|-------10--10-12/14-12-12-10----10-10--
|6|-12-12---12------------------12------12

|1|---------------------------------------
|2|---------------------------------------
|3|---------------------------------------
|4|-12h14-12-14-12----------------14-12---
|5|----------------14-12----12h14-------12
|6|----------------------14---------------

|1|------12-----12---12--12-15b15b15-12---
|2|-12-12---15b---15b?15b-----------------
|3|---------------------------------------
|4|---------------------------------------
|5|---------------------------------------
|6|---------------------------------------

|1|-17b-17b-15-17--15-15---------------------
|2|----------------17-15---------15-12-------
|3|---------------------¬-16-14-12------14-12
|4|------------------------------------------
|5|------------------------------------------
|6|------------------------------------------
Suggest correction
Give kudos to tab author, rate the tab!
1 2 3 4 5
comments
print report bad tab
guest
You may want to rate the tab now too:
select rating
Wanna post a correction for this tab? Suggest correction