Oops, an error
Loading. Please wait.

Estupendo Día Tab

version 1
version 1

Whole song

43 views 6 this week
no commentswrite comment
1 2 3 4 5
3 more votes to show rating
add to favorites
launch autoscroll
font size
0
reset
how to read this tab
guitar tuner
×
Best way to learn
"Estupendo Día"
Autoscroll
slow
fast
+/-
esc
set tempo
stop
ac sta el solito d guitarra, el pianito toca durante la estrofa
primero la tonica y despues dos notas mas del mismo acorde
x eso parece k hace 2 acordes x renglon, k se yo

E
Es un estupendo día
A
Es un buen día de sol
E
Las parejas de las manos
A
Muestran todo su amor
E
Hay judíos, hay cristianos
A
Negros, rubios transformados
E
Hay de todo, si ¿Qué paso?


Por las calles todos cantan
En las colas todos bailan
Cuanta alegría hay en la ciudad
Y yo soy un marciano
Que va de ninguna mano
Y en el culo un gran chute le darán...

E          /A

Parece que se ha legalizado algo y no lo se.
Parece que se ha legalizado algo y no lo se.

e--------------------------------------------------
b--------------------------------------------------
g-6/9-6-9-9-6h9-6--6-------------------------------
d----9------------9----------6-9-------------------
a--------------------/7---7-9----9/11-9--9/11-9----
e--------------------------------------------------

e-------------9--------------------7h9-9/12------
b-10-9-7--7b---10-9-7-9---------7h9--------------
g--------9--------------9------------------------
d-------------------------9/11-------------------
a------------------------------------------------
e------------------------------------------------

e-12-10-9-----------------
b-12-10-12-10p8..b--------
g-------------------------
d-------------------------
a-------------------------
e-------------------------


Es un estupendo día
Es un buen día de sol
Las parejas de las manos
Muestran todo su amor
El sapo New York tity
Ahora tito fuma Dirty
El hombre del veneno ya no esta

Por las calles todos cantan
En las colas todos bailan
Cuanta alegría hay en la ciudad
Y yo soy un marciano
Que va de ninguna mano
Y en el culo un gran chute le darán

Parece que se ha legalizado algo y no lo se.
Parece que se ha legalizado algo y no lo se.
Suggest correction
Give kudos to tab author, rate the tab!
1 2 3 4 5
comments
print report bad tab
guest
You may want to rate the tab now too:
select rating
Wanna post a correction for this tab? Suggest correction