Oops, an error
Loading. Please wait.

Estupendo Día Tab

version 2
version 2

Whole song

10 views 1 this week
no commentswrite comment
1 2 3 4 5
3 more votes to show rating
add to favorites
launch autoscroll
font size
0
reset
how to read this tab
guitar tuner
×
Best way to learn
"Estupendo Día"
Autoscroll
slow
fast
+/-
esc
set tempo
stop
Esta version es en vivo en el disco EL ROCK DE MI VIDA

          INTRO
e|-------------------------
B|-------------15-15-14----
G|-------------14-14-14----
D|-2-12s13-5/7----------9--    x4
A|-2-------5/7----------9--
E|-0-------3/5----------7--

E5
Es un estupendo día
SOL5/LA5
Es un buen día de sol
E5
Las parejas de las manos
SOL5/LA5
Muestran todo su amor
E5
Hay judíos, hay cristianos
SOL5/LA5
Negros, rubios transformados
E5
Hay de todo, si ¿Qué paso?

     RIFF 1
Por las calles todos cantan
En las colas todos bailan
Cuanta alegría hay en la ciudad
Y yo soy un marciano
Que va de ninguna mano
Y en el culo un gran chute le darán...

E5   SOL5/LA5

Parece que se ha legalizado algo y no lo se.
Parece que se ha legalizado algo y no lo se.


Es un estupendo día
Es un buen día de sol
Las parejas de las manos
Muestran todo su amor
El sapo New York tity
Ahora tito fuma Dirty
El hombre del veneno ya no esta

     RIFF1
Por las calles todos cantan
En las colas todos bailan
Cuanta alegría hay en la ciudad
Y yo soy un marciano
Que va de ninguna mano
Y en el culo un gran chute le darán

Parece que se ha legalizado algo y no lo se.
Parece que se ha legalizado algo y no lo se.

               RIFF 1
e|---------------------------------------
B|--------------------10-10-8------------
G|--9-9-7/9-------7----------------------
D|----------7-8-9------------------------
A|---------------------------------------
E|---------------------------------------


Luks.
Suggest correction
Give kudos to tab author, rate the tab!
1 2 3 4 5
comments
print report bad tab
guest
You may want to rate the tab now too:
select rating
Wanna post a correction for this tab? Suggest correction