Oops, an error
Loading. Please wait.

Me Estás Tratando Mal Tab

94 views 1 this week
no commentswrite comment
1 2 3 4 5
3 more votes to show rating
add to favorites
launch autoscroll
font size
0
reset
how to read this tab
guitar tuner
×
Best way to learn
"Me Estás Tratando Mal"
Autoscroll
slow
fast
+/-
esc
set tempo
stop
NOTA:Corrigo ciertas distracciones que tuve, ahora espero que sea de su agrado

Algunos de los yeites que haces podrán notar que utiliza un slide

|1|----------------------------
|2|-9/12-12/14-12-9/12-9-------
|3|----------------------9/11-9
|4|----------------------------
|5|----------------------------
|6|----------------------------
Este frase con slide lo repite al minuto
0:35 - 1:15
|1|---------------------------------------
|2|---------------------------------------
|3|---------------------------------------
|4|--9/11-9-------------------------------
|5|--------9-7----------------------------
|6|---------------------------------------
1:25
|1|-14-12---------------------------------
|2|-------14-12---------------------------
|3|-------------13-11-9-------------------
|4|---------------------------------------
|5|---------------------------------------
|6|---------------------------------------

SOLO MINUTO 1:50

|1|---------------------------------------
|2|----12---------------------------------
|3|-11b-11b-11b-11-99-11------9---9-11b11b
|4|----------------------9-11---11--------
|5|---------------------------------------
|6|---------------------------------------

|1|----------------------9-12-12/14-12----
|2|-----------------9-12--------------14--
|3|-11b11b-11-99--------------------------
|4|---------------------------------------
|5|---------------------------------------
|6|---------------------------------------

|1|-14b14-12--12-14---------------------
|2|---------14-----------14-12--------------
|3|--------------------------13-11-9------
|4|---------------------------------------
|5|---------------------------------------
|6|---------------------------------------

|1|-----------5/12------------------------
|2|-12b-9-7-5-----------------------------
|3|---------------------------------------
|4|---------------------------------------
|5|---------------------------------------
|6|---------------------------------------
2:15
|1|---------------------------------------
|2|-12/14/12------------------------------
|3|---------------------------------------
|4|---------------------------------------
|5|---------------------------------------
|6|---------------------------------------

2DO SOLO
|1|---------------------------------------
|2|---------------------------------------
|3|------9----9-11b11b-11b11-99-11--------
|4|-9-11---11-----------------------------
|5|---------------------------------------
|6|---------------------------------------

|1|---------------------------------------
|2|---------------------------------------
|3|------9----9-11b11b-11b11b-11-99-------
|4|-9-11---11-----------------------------
|5|---------------------------------------
|6|---------------------------------------

|1|-14b14-12-----12-14-----------12-121412
|2|-----------14------------12-14---------
|3|-----------------------13--------------
|4|---------------------------------------
|5|---------------------------------------
|6|---------------------------------------

|1|-------------------------5/12----------
|2|-14-12---------12b-9-7-5---------------
|3|-------13-11-9-------------------------
|4|---------------------------------------
|5|---------------------------------------
|6|---------------------------------------
REPITE EL YEITE CON SLIDE PERO LE HACE UNA MODIFICACION PEQUEÑA
Suggest correction
Give kudos to tab author, rate the tab!
1 2 3 4 5
comments
print report bad tab
guest
You may want to rate the tab now too:
select rating
Wanna post a correction for this tab? Suggest correction