Oops, an error
Loading. Please wait.

Perdón Tab

version 2
version 2

Whole song

34 views 1 this week
no commentswrite comment
1 2 3 4 5
3 more votes to show rating
add to favorites
launch autoscroll
font size
0
reset
how to read this tab
guitar tuner
×
Best way to learn
"Perdón"
Autoscroll
slow
fast
+/-
esc
set tempo
stop
Aqui les dejo la version del solo que hacen en el acustico del
gran rex:


|1|--------------------------------------------------
|2|---7------------7---------7-----------------------
|3|-8---8-8-8----8---888---8---6-4-2---2h4-2---------
|4|------------------------------------------4-2-4/6-
|5|--------------------------------------------------
|6|--------------------------------------------------


|1|----------------------------------------------------------
|2|---------------------------45-5/7/5-5-7-7/9-7-5-7b7-5---5-
|3|-----4-----------------4h6----------------------------6---
|4|-4h6---6-4---4--4--4h6------------------------------------
|5|-----------7----------------------------------------------
|6|----------------------------------------------------------

|1|--------------------------------------------
|2|-7-5---5------------------------------------
|3|-----6---6-4-6--6-4---4-----------4444-6666-
|4|--------------------6---6-4---4/6-----------
|5|----------------------------7---------------
|6|--------------------------------------------

|1|------------------------------------------------------------------------
|2|-4h5p4---4--4h5-4h5p4---4-5-5/7/9/12-12--14-12-14-12-16--12-16p12-16p12-
|3|-------6--------------6-------------------------------------------------
|4|------------------------------------------------------------------------
|5|------------------------------------------------------------------------
|6|------------------------------------------------------------------------

|1|-----------------------------------------------------------7-
|2|/7-5---7p5--5--7rb--7p5--5-77-5--4h5p4---4-5/7-7/12----2/4---
|3|----6-----6------------6---------------6------------13-------
|4|-------------------------------------------------------------
|5|-------------------------------------------------------------
|6|-------------------------------------------------------------
Suggest correction
Give kudos to tab author, rate the tab!
1 2 3 4 5
comments
print report bad tab
guest
You may want to rate the tab now too:
select rating
Wanna post a correction for this tab? Suggest correction