Oops, an error
Loading. Please wait.

Sueños Son Tab

1 view 1 this week
no commentswrite comment
1 2 3 4 5
3 more votes to show rating
add to favorites
launch autoscroll
font size
0
reset
how to read this tab
guitar tuner
Autoscroll
slow
fast
+/-
esc
set tempo
stop
Help us to improve Ultimate-Guitar.com Take our survey!
×
Riff1:
   A                          D        Dsus4/Dsus2/Dsus4...
e---------------------------------------3--2--3--2--3s5
b-----------------------------3<<<<<----3--3--3--3--3<<
g--0<<<h2-2-2--0<<<h2-2-2-0---2<<<<<----2--3--2--3--2<<
d--0<<<h2-2-2--0<<<h2-2-2-0---0<<<<<---[0][0][0][0][0]<
a-[0]---------[0]--------------------------------------
E------------------------------------------------------


Riff2:
   A                          D
e---------------------------------------3--2--3--2--3--2--
b-----------------------------3<<<<<----3--3--3--3--3--3--
g--0<<<h2-2-2--0<<<h2-2-2-0---2<<<<<----2--3--2--3--2--3--
d--0<<<h2-2-2--0<<<h2-2-2-0---0<<<<<---[0][0][0][0][0][0]-
a-[0]---------[0]-----------------------------------------
E---------------------------------------------------------

Riff3:
   A                          D
e--------------------------------------[3]|---3|----3p2--
b-----------------------------3<<<<<----3-|---3|----3----
g--0<<<h2-2-2--0<<<h2-2-2-0---2<<<<<----2-|---2|----2----
d--0<<<h2-2-2--0<<<h2-2-2-0---0<<<<<---[0]|--[0|----0----
a-[0]---------[0]----------------------------------------
E--------------------------------------------------------


G5:     D5:

E-x     E-x
B-x     B-x
G-x     G-5
D-5     D-5
A-5     A-3
E-3     E-x


Intro:

Riff1 x 2.


Riff2
Todo el pueblo quiere una voz
Todo el pueblo quiere una ilusión
Riff1
Bienestar, techo, que comer
Un empleo y la seguridad


Riff1
Que ese boludo no vuelva más
Si es aburrido que no vuelva más
Riff1
Quiero ver sus huesos pudrir
En la jaula de Olmos


Guitarra1:
e---------------------------------------------------------3--2--3--2--3--2-
b-----------2<<<-[2]----------2<<<-[2]------------3<<<<---3--3--3--3--3--3-
g---------2-----------------2----------------2----2<<<<---2--3--2--3--2--3-
d[0]-2<h4--------------2<h4------------2<h4-------0<<<<--[0][0][0][0][0][0]
a--------------------------------------------------------------------------
E--------------------------------------------------------------------------

Guitarra2:
e------------------------------------------------------------------
b-------------------------------------------------3----------------
g--2----------------------------------------------2----------------
d--2----------------------------------------------0----------------
a--0---------------------------------------------------------------
E------------------------------------------------------------------


Riff1
No hay respeto, no hay dignidad
No hay justicia Entonces que es lo que hay
Riff1
Mucha gente que paga por ver
Presos a varios y muertos también

Riff1
Como ese gorila que nos vendio
ese gorila que nos robo
Riff3
yo Quiero ver su sueño fruncir
En la jaula de Devoto pero.


Guitarra1:

D5              G5               D5                  G5
Sueños, sueños son.                  Sueños, sueños son.

Guitarra2:
e-----------------------------------------------------------------
b---------------------------------------------------10------------
g---9b[11]-9b[11]r9-7-----------9b[11]-9b[11]r9-7-7----9b[11]<<<<-
d---------------------7<<<<<<-------------------------------------
a-----------------------------------------------------------------
E-----------------------------------------------------------------

e------------------------------------------------
b------------------------------------------------
g---9b[11]-9b[11]r9-7-----------9b[11]-9b[11]r9-7
d---------------------7<<<<<<--------------------
a------------------------------------------------
E------------------------------------------------


Solo  [la guitarra 2 puede hacer 2 Riff2]

Riff1
Guardo el arma en el cajón
Doce balas en tu corazón
Riff1
No me importa el que dirán
Si sobra rabia para regalar

Riff1
Y a todos los cerdos de la nación
Que se olvidaron de la moral
Riff3
Hagan el bolso, digan adiós
Que Sierra Chica esta esperando perooo


Guitarra1:

D5              G5               D5                  G5
Sueños, sueños son.                  Sueños, sueños son.

Guitarra2:
e-----------------------------------------------------------------
b---------------------------------------------------10------------
g---9b[11]-9b[11]r9-7-----------9b[11]-9b[11]r9-7-7----9b[11]<<<<- x3
d---------------------7<<<<<<-------------------------------------
a-----------------------------------------------------------------
E-----------------------------------------------------------------

e-----------------------------------------------------------------
b-----------------------------------------------------------------
g---9b[11]-9b[11]r9-7-----------9b[11]-9b[11]r9-7<<<<<------------
d---------------------7<<<<<<-------------------------------------
a-----------------------------------------------------------------
E-----------------------------------------------------------------


Despues de varias veces de esto hay un:

Sueños sueños soooooooooooooooooon!!!

Guitarra1 (varias veces):
e----------------------------------------------------------------------
b----------------------------------------8-8<<<[8]-----8-8<<<[8]-----8|
g-----7-7<<[7]------7-7<<[7]-----7|--7h9-----------7h9-----------7h9---
d-7h9----------7h9-----------7h9---------------------------------------
a----------------------------------------------------------------------
E----------------------------------------------------------------------


REFERENCIAS:

[0]       La nota no va tan fuerte como las otras...
          igual eso queda a criterio de c/u

3<<<<
2<<<<     Dejar sonar un ratito / si puede ser con
0<<<<     vibrato en algunas ocasiones mejor


9b11      Estirar la cuerda en el traste 9 haste
          q suene como si tocaramos en el 11

9b11r9    Estirar la cuerda en el traste 9 haste q suene
          como si tocaramos en el 11 y luego volver a bajar al 9
          sin usar la mano derecha

0h2       Ligado/hammer: tocar la cuerda en el 0 y despues
          apoyar dedo mano izq sobre el 2 sin usar la mano derecha

3s5       Slide/deslizar

3-|       Tapar, dejar sonar poquito tiempo


Primera tablatura q subo y seguramente la ultima,
espero q ande bien

Ezequiel Bengolea.
Suggest correction
Give kudos to tab author, rate the tab!
1 2 3 4 5
comments
print report bad tab
guest
You may want to rate the tab now too:
select rating
Wanna post a correction for this tab? Suggest correction