Oops, an error
Loading. Please wait.

Una Noche Más Tab

40 views 3 this week
no commentswrite comment
1 2 3 4 5
3 more votes to show rating
add to favorites
launch autoscroll
font size
0
reset
how to read this tab
guitar tuner
Autoscroll
slow
fast
+/-
esc
set tempo
stop
 RIFF 1:
1|---------------------------|
2|---------------------------|
3|---------------------------|
4|--5/7-7-10-7-7-33-555------|
5|--5/7-7-10-7-7-33-555------|
6|--3/5-5-8--5-5-11-333------|

INTRO: RIFF 1 x2

 RIFF 1
Mi cuerpo en llamas
                    RIFF 1
algo me dice que no
 RIFF 1
voy caminando
                      RIFF 1
y sin saber donde voy.

 RIFF 1
Si me pregustas
                RIFF 1
por que te elegí
 RIFF 1
sos tan astuta
                    RIFF 1
en cambio yo soy así

  REPITE INTRO

RIFF 1
Estoy cansado
                     RIFF 1
ya no me puedo mover
RIFF 1                             RIFF 1
una semana arrodillando a tus pies

Tarde o temprano
tu cuerpo me hace temblar
te estoy buscando
de día, de noche de más

ESTRIBILLO:
DO5  LA5          MI5      SOL5
Una noche más con vos
DO5  LA5          MI5      SOL5
fascinado por lo que paso
DO5   LA5         MI5      SOL5
no me dejes nunca más
DO5   LA5          MI5        SOL5
mendigando solo en la ciudad

  REPITE INTRO

RIFF 1
Mi cuerpo en llamas
                    RIFF 1
algo me dice que no
 RIFF 1
voy caminando
                      RIFF 1
y sin saber donde voy.

Tarde o temprano
tu cuerpo me hace temblar
te estoy buscando
de día, de noche de más

DO5  LA5          MI5      SOL5
Una noche más con vos
DO5  LA5          MI5      SOL5
fascinado por lo que paso
DO5   LA5         MI5      SOL5
no me dejes nunca más
DO5   LA5          MI5        SOL5
mendigando solo en la ciudad

 SOLO.
1|----------------------------------------------------------
2|----------------------------------------------------------
3|----------------------------------------------------------
4|--10-----------10--12b-12-10-12-10h12p10--10----------10--
5|------12-10-12-------------------------------12-10-12-----
6|----------------------------------------------------------

1|----------------------------------------------------------
2|----------------------------------------------------------
3|----------------------------------------------------------
4|--12s14-14-12-12-10--10----------10-12b-12-10-12-12p10----
5|------------------------12-10-12--------------------------
6|----------------------------------------------------------

1|----------------------------------------------------------
2|----------------------------------------------------------
3|--12h14-14-14-12h14-14--7h9-9-7---------------------------
4|----------------------------------------------------------
5|----------------------------------------------------------
6|----------------------------------------------------------

REPITE EL ESTRIBILLO

DO5    LA5        MI5        SOL5
noo noo me dejes nunca máss
DO5    LA5         MI5        SOL5
mendigando solo en la ciudad

FINAL: RIFF 1 x2.

Espero que les sirva.
Cualquier cosa, critica, etc.
mi mail es 
Aguante GUASONES y EL BORDO.
Suggest correction
Give kudos to tab author, rate the tab!
1 2 3 4 5
comments
print report bad tab
guest
Wanna post a correction for this tab? Suggest correction