Oops, an error
Loading. Please wait.

Fuera Del Útero Bass

5 views 1 this week
no commentswrite comment
1 2 3 4 5
3 more votes to show rating
add to favorites
launch autoscroll
font size
0
reset
guitar tuner
×
Best way to learn
"Fuera Del útero"
Autoscroll
slow
fast
+/-
esc
set tempo
stop
x= tocar varias veces la misma nota


Intro

G|---------------------------|
D|---------------------------|
A|---------------------------|
E|--00-3-0-3-00-3-0----------| 4 veces


O todos con todos..........

G|---------------------------|
D|---------------------------|
A|---------------------------|2 veces
E|--00-3-0-3-00-3-0----------|


o con la misma oportunidad......

G|---------------------------|
D|---------------------------|
A|--3x--5x-------------------|
E|----------00-3-0-3-00-3-0--|


O todos riendo.....

G|---------------------------|
D|---------------------------|
A|---------------------------|2 veces
E|--00-3-0-3-00-3-0----------|


Sin ningun daño colateral.......


G|---------------------------|
D|---------------------------|
A|--3x--5x-------------------|
E|----------00-3-0-3-00-12/0-|


Estribillo: Rige el dominio.........


G|-----------------------------------------|
D|-----------------------------------------|
A|-3x-5x-2x-3x----5x-----------------------|
E|-------------3x-------00-3-0-3-00-3-0----|


INTERVALO:el bajo no toca


Segunda vuelta

O todos con todos..........

G|---------------------------|
D|---------------------------|
A|---------------------------|2 veces
E|--00-3-0-3-00-3-0----------|


o con la misma oportunidad......

G|---------------------------|
D|---------------------------|
A|--3x--5x-------------------|
E|----------00-3-0-3-00-3-0--|


O todos riendo.....

G|---------------------------|
D|---------------------------|
A|---------------------------|2 veces
E|--00-3-0-3-00-3-0----------|


Sin ningun daño colateral.......


G|---------------------------|
D|---------------------------|
A|--3x--5x-------------------|
E|----------00-3-0-3-00-12/0-|


Estribillo: Rige el dominio.........


G|-----------------------------------------|
D|-----------------------------------------|
A|-3x-5x-2x-3x----5x-----------------------|
E|-------------3x-------00-3-0-3-00-3-0----|


PUENTE:el bajo no toca vuelve en el solo de guitarra


G|---------------------------|--------------------|
D|---------------------------|--------------------|
A|--3x--5x-------------------|--------------------|
E|----------00-3-0-3-00-3-0--|--12/0*/12--12/0----|


*vuelve al 12 haciendo slide sin volver a tocar


Estribillo: Rige el dominio.........


G|-----------------------------------------|
D|-----------------------------------------|
A|-3x-5x-2x-3x----5x-----------------------|
E|-------------3x-------00-3-0-3-00-3-0----|2 veces


FINAL


|---------------------------------------|
D|--------------------------------------|
A|--------------------------------------|
E|-12/0*/12----12/0*/12---12/0*/12---12-|


Bueno ahi esta todo

cualquier duda o consulta me escriben

saludos Aguante guillermina y MONO ROCK


--------------------------------------------------------


Suggest correction
Give kudos to tab author, rate the tab!
1 2 3 4 5
comments
print report bad tab
guest
You may want to rate the tab now too:
select rating
Wanna post a correction for this tab? Suggest correction