Oops, an error
Loading. Please wait.

Qué Haremos Chords

5 views 1 this week
no commentswrite comment
1 2 3 4 5
3 more votes to show rating
add to favorites
launch autoscroll
font size
0
reset
transpose
0
reset
simplify chords
display chords
guitar tuner
Autoscroll
slow
fast
+/-
esc
set tempo
stop
Strumming
There is no strumming pattern for this song yet. and get +5 IQ
e|------------2------|
B|------------3------|
G|------------2------|
D|-------0h2--0------|
A|---0h2------0 -----|
E|-------------------|

D G D
(1)
D                                      G                           D
Y al final, ¿qué van a hacer? ¿Construirán paredes altas hasta el fin?
D                            G                      D
¿Fuertes sin portón y una ventana para tirarnos los huesos?
          D/B                            Bm
Hoy se confunde contra quién hay que pelear,
           G                         A
hay que domar a esta farsa y no se deja.

(1)
Están cerrándolo, están corriendo para guardarse lugar.
Estoy sintiendo más, estoy buscando, estoy regando una flor.
Hombre sin sueños es un hombre que lloró.
Solo que hará cuando le vendan hasta el sol.

(2)
D                     A                Bm     Bm Cm D
¿Qué haremos con sus hijos y con su sangre?
D                        A             Bm      Bm Cm D
¿Qué los tapará de la lluvia, de tus desechos?
D                   A                  Bm      Bm Cm D
¿Les borrarás las risas por un llanto amargo?
D                   A
Y quien trepe las paredes, ¿qué harás?...
A               Bm
¿los bajarás a palos?

(1ª GUITARRA)
e|--7----------------------------------
B|----10--7----------------------------
G|----------9--7--6--7-----------------
D|-------------------------------------
A|-------------------------------------
E|-------------------------------------

(1)
Y al final, ¿qué van a hacer?
¿Construirán paredes altas hasta el fin?
¿Fuertes sin portón y una ventana para tirarnos los huesos?
Si queda algo en este mundo para amar,
queda fuera, queda lejos de tu edén.

(2)
¿Qué haremos con sus hijos y con su sangre?
¿Qué los tapará de la lluvia, de tus desechos?
¿Nos borrarán las risas por un llanto amargo?
Quien trepe las paredes, ¿qué harás?...
¿los bajarán a palos?
(1ª GUITARRA)
e|--7-------------------------8s10-9-----------------------------------7--
B|----10--7-------------------------10-7-------7-7---------------------7--
G|----------9--7-6-7-6-7-6-7-------------9-9-9-----9--6-7--6-7-6-------7--
D|----------------------------------------------------------------7--9-9--
A|---------------------------------------------------------------------9--
E|---------------------------------------------------------------------7--

Bm

D                  A                   Bm                Bm Cm
Vos quedas afuera. Vos quedas afuera, estás quedando afuera,
D                  A                      Bm
yo me quedo afuera, estás quedando afuera, vos quedas afuera.

D  A  Bm

D                   A                         Bm
Si darían a elegir, estarían adentro de este edén.
D                      A                         Bm
Si te darían a elegir, estarías adentro del puto edén.
D                   A                      Bm             Bm Cm
¡Vos quedes afuera! Estás quedando afuera, ella queda afuera,
D                      A                  Bm
estás quedando afuera, vos quedas afuera,
Bm
¡Ella queda afuera, ella queda afuera!

(FINAL)
e|---------|
B|--7-7-7--|
G|---7-7-7-|
D|---------| (MUCHAS VECES Y...)
A|---------|
E|---------|

e|--7----|
B|--7----|
G|--7----|
D|--9----|
A|--9----|
E|--7----|
Suggest correction
Give kudos to tab author, rate the tab!
1 2 3 4 5
comments
print report bad tab
guest
You may want to rate the tab now too:
select rating
Wanna post a correction for this tab? Suggest correction