Oops, an error
Loading. Please wait.

Qué Haremos Bass

20 views 1 this week
no commentswrite comment
1 2 3 4 5
3 more votes to show rating
add to favorites
×
Save as Personal and add changes to this tab that will be seen only by you. Learn more ›
×
You can save this tab as Personal to edit and correct it or add notes. All changes will be seen only by you. Learn more »
save as personal
new!
launch autoscroll
font size
0
reset
guitar tuner
Autoscroll
slow
fast
+/-
esc
set tempo
stop
Que haremos


Y al final, ¿qué van a hacer?
¿Construirán paredes altas hasta el fin?
¿Fuertes sin portón y una ventana para tirarnos los huesos?
Hoy se confunde contra quién hay que pelear,
hay que domar a esta farsa y no se deja.
Están cerrándolo, están corriendo para guardarse lugar.
Estoy sintiendo más, estoy buscando, estoy regando una flor.
Hombre sin sueños es un hombre que lloró.
Solo que hará cuando le vendan hasta el sol.

--a--

¿Qué haremos con sus hijos y con su sangre?
¿Qué los tapará de la lluvia, de tus desechos? --b--
¿Les borrarás las risas por un llanto amargo? --c--
Y quien trepe las paredes, ¿qué harás?... --c--
¿los bajarás a palos?


(En esta estrofa marca las notas y mete u arreglito en una parte pero
no es de mucha importancia)


D
Y al final, ¿qué van a hacer?
G                                     D
¿Construirán paredes altas hasta el fin?
D                         G                           D
¿Fuertes sin portón y una ventana para tirarnos los huesos?
D                               B
Si queda algo en este mundo para amar,
    G                         A
queda fuera, queda lejos de tu edén.

--a--

ESTRIBILLO


--d--

y termina con la base --c-- con el corte --d-- en una parte


Vos quedas afuera. Vos quedas afuera, estás quedando afuera,
yo me quedo afuera, estás quedando afuera, vos quedas afuera.
Ella queda afuera, ella queda afuera. Si darían a elegir,
estarían adentro de este edén.
Si te darían a elegir, estarías adentro del puto edén.
¡Vos quedes afuera! Estás quedando afuera, ella queda afuera,
estás quedando afuera, vos quedas afuera, estás quedando afuera.
¡Ella queda afuera, ella queda afuera!


G|---------------------------|
D|--5h7-7-5------------------| a
A|----------7---5*-----------|
E|-----------------5*--7*----|

G|---------------------------|
D|---------------------------| b
A|--5*----------5*-----------|
E|----5*-7*-7-8---5*-7*------|


G|---------------------------|
D|---------------------------| c
A|--5*-----------------------|
E|-----5*-7*-----------------|


G|-------------7-6------------|-14h16-14h16-18h16---|
D|-------5h7h5-----7----------|---------------------| d
A|-5------------------5-------|---------------------|
E|---5-7----------------5-7---|---------------------|


G|---------------------------|
D|---------------------------|
A|--55-55--------------------| e
E|--------55-55--55-7--------|


*=seguir el rito del tema

cualkier cosa l_casla73@hotm...


un saludo!

lukas!
Suggest correction
Give kudos to tab author, rate the tab!
1 2 3 4 5
comments
print report bad tab
guest
Wanna post a correction for this tab? Suggest correction