Oops, an error
Loading. Please wait.

Sé Chords

2 views 1 this week
no commentswrite comment
1 2 3 4 5
3 more votes to show rating
add to favorites
launch autoscroll
font size
0
reset
transpose
0
reset
display chords
guitar tuner
Autoscroll
slow
fast
+/-
esc
set tempo
stop
Help us to improve Ultimate-Guitar.com Take our survey!
×
INTRO:
1.--------------------------------------------------------------------
2.--------------------------------------------------------------------
3.--------------------------------------------------------------------
4.-----------6------7------9---------------6-------7----6-------6-----
5.-------7-------7------7------7------7--------7-------------7--------
6.---0----------------------------0-----------------------------------

1.--------------------------------------------------------------------
2.--------------------------------------------------------------------
3.--------------------------------------------------------------------
4.--------6-----6---------6------------9-----------------7------------
5.-----7-----7-----7---9-----------6------6----------4-------4--------
6.--9---------------------------7----------------5--------------------


E
Tengo que mirar, tengo que escuchar,
                             C#m
Tengo que hablar, tengo que sentir,
B        A               E
¿Alguien aquí sabe el porqué?
E
Tengo que ordenar, tengo que romper,
                           C#m
Tengo que subir, tengo que bajar,
B        A               E
¿Alguien aquí sabe el porqué?
E
Tengo que quemar, tengo que correr,
                             C#m
Tengo que parar, tengo que dormir.
E
Tengo un delirio, tengo un pecado,
                                        C#m
Tengo algo prohibido, y sé que no es tan malo.
E
Tengo la riqueza que no es tan cara,
                                  C#m
Tengo que acordarme que nunca me dejará.

A                        B
Entonces yo, respiro y sé, porqué?
            C#m                 B
Tengo que seguir. Tengo que seguir


SOLO:

1.---------------------------------------------------------
2.--9------9--10--12------12--10--9------------------------
3.-----------------------------------9--------9--11--11(b)-
4.----------------------------------------11---------------
5.---------------------------------------------------------
6.---------------------------------------------------------

1.--------------------------------------------12--11--10---
2.--12---------------12----9--10--12----12----------------
3.------11--9---------------------------------------------
4.---------------------------------------------------------
5.---------------------------------------------------------
6.---------------------------------------------------------

1.---------------------------------------------------------
2.-12--9---------------------------------------------------
3.--------11-9--------11(b)---9----------------------------
4.---------------11----------------------------------------
5.---------------------------------------------------------
6.---------------------------------------------------------


E
Tengo una deuda, tengo que pagar,
                                 C#m
Tengo que aceptarme, tengo que gritar.
E
Tengo un amor y tengo una vida,
                                   C#m
Tengo una muerte que yo sé me esperará.

A                       B
Entonces yo, respiro y sé, porqué?
           C#m
Tengo que seguir.

A                       B
Entonces yo, respiro y sé, porqué?
           C#m
Tengo que seguir! Tengo que seguir!
        E             B                 C#m
Por lo honrado, lo bien hecho, tengo que seguir
       E       B              C#m
Para darte compañía, tengo que seguir.
         A                 B
Entonces vos, respirás te llenás, no queda otra,
           C#m
Tenés que seguir. Tenés que seguir.
        E      B            C#m
Por el niño dormido tengo que seguir,
        E        B                C#m
Está esperando mi niño, tengo que seguir.
         A                  B                   C#m
Tengo que seguir. Tengo que seguir. Tengo que seguir
          A           B               C#m
Entonces yo respiro y sé, tengo que seguir
Suggest correction
Give kudos to tab author, rate the tab!
1 2 3 4 5
comments
print report bad tab
guest
You may want to rate the tab now too:
select rating
Wanna post a correction for this tab? Suggest correction