Oops, an error
Loading. Please wait.

Dame Tu Mujer José Tab

749 views 6 this week
2 commentsread comments
1 2 3 4 5
3 more votes to show rating
add to favorites
launch autoscroll
font size
0
reset
how to read this tab
guitar tuner
×
Best way to learn
"Dame Tu Mujer José"
Autoscroll
slow
fast
+/-
esc
set tempo
stop
Intro

e------------------------------|
B----------7----------5-4-2-4--|
G-------9-8-7-4--7-4-7-------5-| SE REPITE
D----5-9-----------------------|
A--7---------------------------|
E------------------------------|

   dame tu mujer José!

e---7-7-7-7-7-5---8-8-8- 8- 8-7--|
B--8------8-8-7-10------10-10-8--|
G--------------------------------| SE REPITE
D--------------------------------|
A--------------------------------|
E--------------------------------|


e------------------------------------|
B------------------------------------|
G---------------------------5-4-2-4--|
D-------4-5-5-4-5-7-4--7-4-7-------5-|
A--6-6-6-----------------------------|
E------------------------------------|


Em               B7
dame tu mujer jose
                    Em
dime cuando me la daras (bis)
                       B7
eres un hombre sin verguenza
                     Em
y me la tienes que pagar (bis)

                   B7
hay joselito no llores
                  Em
por esa morena hermosa (bis)
                   B7
acuerdate cuando dolores
                       Em
que tu alma casi la destroza (bis)


Coro
Em                            B7
Hay Joselito, quiero a esa muchacha

hombre porque tiene
              Em
la vida muy risueña (bis)


e---7-7-7-7-7-5---8-8-8- 8- 8-7--|
B--8------8-8-7-10------10-10-8--|
G--------------------------------| SE REPITE
D--------------------------------|
A--------------------------------|
E--------------------------------|


e------------------------------------|
B------------------------------------|
G---------------------------5-4-2-4--|
D-------4-5-5-4-5-7-4--7-4-7-------5-| SE REPITE
A--6-6-6-----------------------------|
E------------------------------------|

Em                   B7
cuando yo llegue del valle
                     Em
jose a su casa me llevo (bis)
                      B7
y sin pensar en mas detalles
                       Em
su mujer de mi se enamoro (bis)

Em               B7
hay joselito recuerda
                 Em
el dinero que te di (bis)
                 B7
en pago de ese dinero
                      Em
quiero a tu morena pa' mi (bis)


Coro...

Em                          B7
mira toñito quiero a esa muchacha
                                  Em
hombre porque tiene la vida muy risueña
                                  B7
atiendeme carlitos quiero a esa muchacha
                                  Em
hombre porque tiene la vida muy risueña


Esta es la versión original de Guillermo
Buitrago, de cienaga, Magdalena, pero llego a Antioquia,
gran bohemio, parrandero y bebedor.
espero sea de su agrado.
Jhulian C.
Suggest correction
Give kudos to tab author, rate the tab!
1 2 3 4 5
comments
print report bad tab
2 comments total.
0 reply
Bayron12 10 May 28, 2015 08:52 PM, edited on May 29 2015, 12:53 am

Aquí hay un pequeño error

guest
You may want to rate the tab now too:
select rating
Wanna post a correction for this tab? Suggest correction