Oops, an error
Loading. Please wait.

Aquí Tab

19 views 1 this week
no commentswrite comment
1 2 3 4 5
3 more votes to show rating
add to favorites
launch autoscroll
font size
0
reset
how to read this tab
guitar tuner
Autoscroll
slow
fast
+/-
esc
set tempo
stop
Help us to improve Ultimate-Guitar.com Take our survey!
×
INTRO:
                                                                 +++++(harmónico)
e|----5---5-7--------5----------0-----5---5^9-5--------5------------12--|
B|------5-----5----5--------------------5-------5----5-----------12-----|
G|--------------5------5-5^7-5-4------------------5------5-5^7-5--------|FIG 1
D|----------------------------------------------------------------------|
A|-0--------------------------------0-----------------------------------|
E|--------------------------------0-------------------------------------|

En la segunda vez, otra guitarra hace acordes en La mayor, y en la tercer vez entra esto:
    A        C           B
e|-------------------------------|
B|-------------------------------|
G|-------------------------------|
D|--7--7---7/10--10---10/9-9/10--|FIG 2
A|--7--7---7/10--10---10/9-9/10--|
E|--5--5---5/8---8----8-/7-7/8---|

VERSO 1: (Durante el verso se tocan las figuras 1 y 2 simultáneamente)
No hay   lo que no quiero saber   lo que no quiero tener
Si no lo quiero
En mí
No está   si no lo quiero oír
Lo que no quiero sentir
Si no lo quiero


CORO:
    Aaaaaaquí                         Aaaaaaquí
e|---------------------------------------------------------------|
B|-A----------C--C------B-B-B-B--A-A-A-A-A-A--C--C------B-B-B-B--|
G|---------------------------------------------------------------|
D|-7----------10-10-----9-9-9-9--7-7-7-7-7-7--10-10-----9-9-9-9--......y así
A|-7----------10-10-x-x-9-9-9-9--7-7-7-7-7-7--10-10-x-x-9-9-9-9--|
E|-5----------8--8--x-x-7-7-7-7--5-5-5-5-5-5--8--8--x-x-7-7-7-7--|
Aquí
Aquí
Aquí
Aquí no hay nada
Aquí


INTRO X2


VERSO 2:(Igual, figutas 1 y 2)
No está lo que no quiero ya ver
Si nunca voy a volver
No tengo por que mentir
Que hay que podamos resolver
No queda nada que hacer
Mejor me iré ya de aquí


CORO: (igual)


CORO 2:
    No espero nada         No tengo nada que esperar
e|-------------------------------------------------------------------------|
B|-C-----------G---E-E-B-C-----------C---E-E-B-C---------------------------|
G|-5---------------------5---------------------5---------------------------|
D|-5-----------5---2-2-4-5-----------5---2-2-4-5---------------------------.... y así
A|-3-----------5---2-2-2-3-----------5---2-2-2-3---------------------------|
E|-------------3---0-0---------------3---0-0-------------------------------|
No tengo nada
No tengo nada que esperar
No doy nada
No tengo nada que dar


Aquí se toca el acompañamiento del coro (A  C-B) X4


VERSO 3:(igual)
Que hay que podamos resolver
No queda nada que hacer
Mejor me iré ya de aquí


CORO: (igual)
Aquí
Aquí
Aquí
Aquí no hay nada
Aquí


CORO 2:(igual)


SOLO: Con acompañamiento del coro (A  C-B)X4


CORO 2: (igual)


FIN:
e|------------------------------------------------------------------|
B|----------------------------------2---------3^2-------3^2---------|
G|----------------------2--5--4--3--2-------------2---------2-------|
D|--7------7------7-----2--5--4--3--2---------------2---------2-----|
A|--7------7------7-----0--3--2--1--0----------------------------0--|
E|--5------5------5-------------------------------------------------|
Suggest correction
Give kudos to tab author, rate the tab!
1 2 3 4 5
comments
print report bad tab
guest
You may want to rate the tab now too:
select rating
Wanna post a correction for this tab? Suggest correction