Oops, an error
Loading. Please wait.

Celofán Tab

version 1
version 1

Whole song

64 views 1 this week
no commentswrite comment
1 2 3 4 5
3 more votes to show rating
add to favorites
launch autoscroll
font size
0
reset
how to read this tab
guitar tuner
Autoscroll
slow
fast
+/-
esc
set tempo
stop
va mas o menos asi,,,,,

C                G
CASI TODA LA CANCION VA CON ESOS ACORDES
-------------------------------------
--------2----------------------------
--------2-------5--------------------
-------------------------------------
-------------------------------------
-------------------------------------

-------------------------------------
-------2s3---------------------------
-------------------------------------
-------------------------------------
-------------------------------------
-------------------------------------

ERES PAPEL DE CELOFAN,,,QUE NO CAMBIA DE COLOR,,,
LO QUE PIERDES CON EL TIEMPO Y LO QUE VUELBES A ENCONTRAR --
C,,,,LA,,,,MI,,,LA,,,MI,,,LA,,,MI,,,,LA,,,MI
------------------------------------
-------------0-----------------------
------0  2 3----0 2 3----------------
-------------------------------------
-------------------------------------
-------------------------------------

-------------------------------------
-------------------------------------
-------2S 55-------------------------
-------------------------------------
-------------------------------------
-------------------------------------

NO ESTOY SEGURO QUE ASI VA PERO AHI BUSQUENLE
C          G
---------------------------------------------------
---------------------------------------------------
-----0 2---/2 0 2 3  2 02-/-3-0-3-0-2S3------------
---------------------------------------------------
---------------------------------------------------
---------------------------------------------------
LA ULTIMA PARTE VA ASI
-------------------------------------
-------------------0------------------
-----2-2-0-2--2-0- 2-2-0-2-----------
-------------------------------------
-------------------------------------
-------------------------------------

bueno va mas omenos asi,,,pero cualquier cosa mandanmela a mi email,,,,,,

ya serafin aguantale con las canciones viejitas y ponte a escuchar buenas 
canciones y sacalas bien
Suggest correction
Give kudos to tab author, rate the tab!
1 2 3 4 5
comments
print report bad tab
guest
Wanna post a correction for this tab? Suggest correction