Oops, an error
Loading. Please wait.

Celofán Tab

version 2
version 2

Whole song

37 views 1 this week
no commentswrite comment
1 2 3 4 5
3 more votes to show rating
add to favorites
launch autoscroll
font size
0
reset
how to read this tab
guitar tuner
Autoscroll
slow
fast
+/-
esc
set tempo
stop
Help us to improve Ultimate-Guitar.com Take our survey!
×
Intro:

  Gx3   D       Cx3     E
1-3-3-3-2h3-2--0-0-0--7h8-7------------
2-3-3-3------3-1-1-1-------10----------
3-0-0-0--------0-0-0-------------------
4-0-0-0--------2-2-2-------------------
5-2-2-2--------3-3-3-------------------
6-3-3-3--------3-3-3-------------------(x4)

Verso1: G,D,C,E

Comprar azul acero
es todo lo que quiero
plantar un par de sueños 
y despegar del suelo

     
*G,D,C,E/G,D,C,E     *En el disco de concierto,
                    tocan :G,D,Cpausa,B7pausa,A/G,D,C,E

Verso2: G,D,C,E
Soñar envuelto en cielos
dejar detras el miedo
quebrar las formas viejas
y despertar de nuevo
 
Figura1:   
1-x-x-x-x-x--x-x---------------------------
2-x-x-x-x-x--x-x---------------------------
3-x-x-x-x-x--x-x---------------------------(x2)
4-5-5-5-6-7--5s7---------------------------
5-5-5-5-6-7--5s7---------------------------
6-3-3-3-4-5--3s5---------------------------

Coro:G,A

Eres papel de celofan
lo que cambia de color 
lo que pierdes con el tiempo
y lo que vuelves a encontrar

G,D,C,E/G,D,C,E

Verso3:G,D,C,E

No estoy volando lejos
no estoy volando cerca
Eso que quieres ver
es lo que se refleja

Figura1(x4)
Coro
/A,G/x12
Verso1
Figura1(x4)
Coro(x2)
Suggest correction
Give kudos to tab author, rate the tab!
1 2 3 4 5
comments
print report bad tab
guest
You may want to rate the tab now too:
select rating
Wanna post a correction for this tab? Suggest correction